Insane Clown Posse - Homies Chords & Tabs

 

Homies Chords & Tabs

Insane Clown Posse Chords & Tabs

Version: 1 Type: Tab 0 ratings
1 star 2 stars 3 stars 4 stars 5 stars
comments

Homies Tab

   
----------------------------------------------------------------------------
                       ||HOMIES - INSANE CLOWN POSSE||
----------------------------------------------------------------------------


artist: insane clown posse
song title: homies 
tabbed by: cesar
             
H=hammer-on

tuning: E B G D A E

intro
e|----------0-------------------------------0-----------------------|
B|----------0-------------------------------0-----------------------|
G|------------------------------------------------------------------|
D|-----2---------------2-4-4--2--------2----------------------------|
A|-2H4--------4----2H4---5-5--4----2H4---------4--------------------|
E|-------0-------------------------------0--------------------------|

e|------------------------------------------------------------------|
B|------------------------------------------------------------------|
G|-----------------9------------------------------------------------|
D|-----2--4-4--2---9H11-9-7-----------------------------------------|
A|-2H4----5-5--4-----------9-7--------------------------------------|
E|------------------------------------------------------------------|
[ Tab from: http://www.guitartabs.cc/tabs/i/insane_clown_posse/homies_tab.html ]
verse
e|----------0--------------------------------0----------------------|
B|----------0--------------------------------0----------------------|
G|------------------------------------------------------------------|
D|-----2----------------2-4-4--2--------2----------------2--4-4--2--|
A|-2H4---------4----2H4---5-5--4----2H4---------4---2H4-----5-5--4--|
E|-------0--------------------------------0-------------------------|

pre-chorus
e|------------------------------------------------------------------|
B|-------------3---------------3------------------------------------|
G|-x-2---------2---x-2---------2------------------------------------|
D|-x-2-----2H4-----x-2-----2H4--------------------------------------|
A|-x-0-------------x-0----------------------------------------------|
E|------------------------------------------------------------------|

chorus
e|------------------------------------------------------------------|
B|------------------------------------------------------------------|
G|--------------6-6--4--4-4-----------------------------------------|
D|-2--x-2--2-2--6-6--4--4-4-----7-7-7-7-7-7-7-7--9-9-9-9-9-9------2-|
A|-2--x-2--2-2--4-4--2--2-2-----7-7-7-7-7-7-7-7--9-9-9-9-9-9--2H4---|
E|-0--x-0--0-0------------------5-5-5-5-5-5-5-5--7-7-7-7-7-7--------|

there you have it
Comments