Insane Clown Posse - Homies Chords & Tabs

 

Homies Chords & Tabs

Insane Clown Posse Chords & Tabs

Version: 1 Type: Bass Tab 1 rating
1 star 2 stars 3 stars 4 stars 5 stars
comments

Homies Bass Tab

Song: Homiez
Juggalos: Insane Clown Posse
Album: Shangri-la, The Wraith, The 6th joker card

This is the main part (intro / most rap / ya don’t like me)

G:-------------------
D:-------------------
A:-------4---5---4---
E:---0---------------

This part is where Shaggs comes in (who owes ya money homie / when 
you stomped the cop out?)

G:--------------------------------------------------------------
D:--------------------------------------------------------------
A:-------5-----------------------------4-2----------------------
E:---5-------repeat this x times---------0--go into main part---
[ Tab from: http://www.guitartabs.cc/tabs/i/insane_clown_posse/homies_btab.html ]
This is the chorus (homies, homies, talking bout those dawgs of mine)

G:-------------------
D:-------------------
A:------------4---2--
E:---0---0-----------

Post Chorus (homies, homies, homieeeeeeeeeees)

G:----------------------------------------------
D:----------------------------------------------
A:---------------- -----------------------------
E:---5-5-5-5-5-5-5-5-5-7-7-7-7-7-7-7-7--

This is the part where Twiztid drops it… play this by putting your
pick hand palm on the strings near the bridge making a muffled sound

G:----------------------------------------------
D:----------------------------------------------
A:---------------4-4-4-4---5-5-5-5---4-4-4-4----
E:---0-0-0-0------------------------------------

Comments