Insane Clown Posse - Crystal Ball Chords & Tabs

 

Crystal Ball Chords & Tabs

Insane Clown Posse Chords & Tabs

Version: 1 Type: Tab 0 ratings
1 star 2 stars 3 stars 4 stars 5 stars
comments

Crystal Ball Tab

#----------------------------------PLEASE NOTE---------------------------------#
#This file is the author's own work and represents their interpretation of the-#
#song. You may only use this file for private study, scholarship, or research.-#
#------------------------------------------------------------------------------#

SONG NAME------CRYSTAL BALL
BAND-----------INSANE CLOWN POSSE

THIS IS A SONG OFF OF VOILENT J SOLO ALBUM ITS A COOL SONG AND VERY 
EASY TO PLAY. IT IS A RARE SONG SO IF YOU DONT HAVE IT AND YOU WANT IT 
GET NAPSTER OR EMAIL ME.

DOWN TUNE E TO D

INTRO
E--------------|
B--------------|
G--------------|
D--6-6-6-6--0--|     X8
A--6-6-6-6--0--|
D--6-6-6-6--0--|
[ Tab from: http://www.guitartabs.cc/tabs/i/insane_clown_posse/crystal_ball_tab.html ]
VERSE
E-------------------------------|
B-------------------------------|
G-------------------------------|
D-3--5---3--5---3--5---3--5--6--|   X5
A-3--5---3--5---3--5---3--5--6--|
D-3--5---3--5---3--5---3--5--6--|


E---------------------|
B---------------------|
G---------------------|
D-1-1-1---6-5---------|     X4
A-1-1-1---6-5---------|
D-1-1-1---6-5---------|

CHORUS
E--------------------------------------------------------|
B--------------------------------------------------------|
G--------------------------------------------------------|
D-8-7--0-0-0-0---8-7--0-0-0-0---8-7--0-0-0-0---8-7--3333-|
A-8-7--0-0-0-0---8-7--0-0-0-0---8-7--0-0-0-0---8-7--3333-|
D-8-7--0-0-0-0---8-7--0-0-0-0---8-7--0-0-0-0---8-7--3333-|

THATS IT GET THE SONG ITS COOL
DAN

================================================================================
Comments