Insane Clown Posse - Chicken Huntin Chords & Tabs

 

Chicken Huntin Chords & Tabs

Insane Clown Posse Chords & Tabs

Version: 1 Type: Bass Tab 0 ratings
1 star 2 stars 3 stars 4 stars 5 stars
comments

Chicken Huntin Bass Tab

Insane Clown Posse:  Chicken Huntin'
Original Version off of the album "The Ringmaster"
(1994 Psychopathic Records
Tabbed by: Scott Clodfelter


G:---------55--------------------------|  Verse
D:-----------------2-3-4-5----2-3-5----| Riff # 1
A:----3--------------------------------|
E:-------------------------------------|

G:---------10-10---------------------------|  Verse
D:--------------------7-8-9-10------7-8-10-| Riff # 2
A:----8------------------------------------|
E:-----------------------------------------|
[ Tab from: http://www.guitartabs.cc/tabs/i/insane_clown_posse/chicken_huntin_btab.html ]
G:---3---3----------3---3----------3---3--------------1---|
D:-1---1----------1---1----------1---1------------1-3-----|
A:--------4-1-4-1--------4-1-4-1--------4-1-4-1-1-------1-|
E:--------------------------------------------------------|

               Chorus Riff (straight quarters)

Verse # 1: 4x
Verse # 2: 2x
Verse # 1: 6x
Verse # 2: 2x
Verse # 1: 5x
Rest: 2 measures
Chorus: 2x
Verse # 1: 4x
Verse # 2: 2x
Verse # 1: 6x
Verse # 2: 2x
Verse # 1: 5x
Rest: 2 measures
Chorus: 2x
Rest: 10 measures
Verse # 1: 4x
Verse # 2: 2x
Verse # 1: 6x
Verse # 2: 2x
Verse # 1: 5x
Rest: 2 measures
Chorus: 1x

That's it.

Comments