Insane Clown Posse - Cherry Pie Chords & Tabs

 

Cherry Pie Chords & Tabs

Insane Clown Posse Chords & Tabs

Version: 1 Type: Bass Tab 0 ratings
1 star 2 stars 3 stars 4 stars 5 stars
comments

Cherry Pie Bass Tab

   
-------------------------------------------------------------------------------
			     Cherry Pie - Insane Clown Posse
-------------------------------------------------------------------------------
Tabbed by:Juggalofire
Email:brokeneulogy@hotmail.com

Tuning: Stanbard 5-string bass (B E A D G)

Song is played on a 5-string bass. Don't forget the slides.

Intro
G------------------------------------------------------------|
D------------------------------------------------------------|
A-7\0------------------------------7\------------------------|
E------0------0------0------0--------------------------------|
B------------------------------------------------------------|
[ Tab from: http://www.guitartabs.cc/tabs/i/insane_clown_posse/cherry_pie_btab.html ]
Chorus/Post Intro
G------------------------------------------------------------|
D------------------------------------------------------------|
A------------7\0---------------------------------------------|
E-0----0-0--------0----0-------------------------------------|
B-------------------------0---3------------------------------|

Verses
G------------------------------------------------------------|
D------------------------------------------------------------|
A------------------------------------------------------------|
E-0----0-0-------0----0-0-------0----0-0------0----0---------|
B----------------------------------------------------0---3---|

G------------------------------------------------------------|
D------------------------------------------------------------|
A--------------------------------------------------------7\0-|
E-0----0-0-------0----0-0-------0----0-0------0----0-0-------|
B------------------------------------------------------------|
Comments