Inquisition - We Summon The Winds Of Fire Chords & Tabs

 

We Summon The Winds Of Fire Chords & Tabs

Inquisition Chords & Tabs

Version: 1 Type: Tab 0 ratings
1 star 2 stars 3 stars 4 stars 5 stars
comments

We Summon The Winds Of Fire Tab

   
Band:  Inquisition
Album: The Magnificent Glorification of Lucifer
Song:  Winds of Fire
Label: No Colours (2004)

Transcribed By: nyanchuk
Email:          uklearpower@hotmail.com

**everything but outro riff A2 is tremolo picked
**
**riff A has usually 1 pickslide per bar, but it varies
**
**the letters on riff A (eg *S* are where the --- is replace with the slide
				              -3-
		                              -0-

Tunning D G C F A D

 Riff A: (slide on S)
|-------------------------------------------------------------------|
|-------------------------------------------------------------------|
|----------------------------*F*-----------------------------*S*----|
|-------------------------------------------------------------------|
|-2-2-5-5-2-2-3-3-2-2-5-5-2-2-3-3-2-2-5-5-2-2-3-3-2-2-5-5-2-2-3-3---|
|-0-0-0-0-0-0-0-0-0-0-0-0-0-0-0-0-0-0-0-0-0-0-0-0-0-0-0-0-0-0-0-0---|

play Riff A x2 (slide on S) (no slide)


 Riff B:                                                x3
|-----------------------------------------------------|
|-----------------------------------------------------|
|-----------------------------------------------------|
|--7--7--5--5--10--10--3--3--2--2--2--2--2--2--2--2---|
|--5--7--3--5---8--10--1--3--2--2--2--2--2--2--2--2---|
|--5--5--3--3---8---8--1--1--0--0--0--0--0--0--0--0---|

[ Tab from: http://www.guitartabs.cc/tabs/i/inquisition/we_summon_the_winds_of_fire_tab.html ]
 Fill:
|----------------------------|
|----------------------------|
|----------------------------|
|-7--7--5--5--10--10--3--3---|
|-5--7--3--5---8--10--1--3---|
|-5--5--3--3---8---8--1--1---|


 Riff C:               4x
|---------------------|
|---------------------|
|-----3--1--1--3--3---|
|--2--2--2--2--2--2---|
|--2--2--2--2--2--2---|
|--0--0--0--0--0--0---|


play Riff A x2 (slide on F) (no slide)
play Riff B x3, Fill
play Riff C x8


 Riff D:                                             4x
|-----------0-----------0-----------0-----------0---|
|-----------0-----------0-----------0-----------0---|
|-----------1-----------1-----------1-----------3---|
|--2--3--2--2--2--3--2--2--2--3--2--2--2--3--2--2---|
|--2--3--2-----2--3--2-----2--3--2-----2--3--2------|
|--0--1--0-----0--1--0-----0--1--0-----0--1--0------|


 Riff E:                                             4x
|-----------0-----------0-----------0-----------0---|
|-----------0-----------0-----------0-----------0---|
|-----------0-----------0-----------0-----------0---|
|--2--3--2-----2--3--2-----2--3--2-----2--3--2------|
|--2--3--2-----2--3--2-----2--3--2-----2--3--2------|
|--0--1--0-----0--1--0-----0--1--0-----0--1--0------|

play Riff D x4
play Riff E x4

play Riff A x2 (slide on F and S) (slide on F and S)

play Riff A x2 (no slide) (no slide)


 Riff A2:                                    fadeout ~2x
|---------------------------------------------------|
|---------------------------------------------------|
|---------------------------------------------------|
|---------------------------------------------------|
|--2--5--2--3--2--5--2--3--2--5--2--3--2--5--2--3---|
|--0--0--0--0--0--0--0--0--0--0--0--0--0--0--0--0---|
Comments