Inquisition - Of Blood And Darkness We Are Born Chords & Tabs

 

Of Blood And Darkness We Are Born Chords & Tabs

Inquisition Chords & Tabs

Version: 1 Type: Tab 0 ratings
1 star 2 stars 3 stars 4 stars 5 stars
comments

Of Blood And Darkness We Are Born Tab

   
Band:  Inquisition
Album: MAGNIFICENT GLORIFICATION OF LUCIFER
Song: Of Blood And Darkness We're Born

Copyright (c) No Colours (2004)

Transcribed By: nyanchuk
Email:          uklearpower@hotmail.com



Tunning D G C F A D

Riff A:                                        x4
|---------------------------------------------|
|---------------------------------------------|
|-7-----0-(0)7-----0-(0)5-----0----9-----0----|
|-7---7------7---7------5---5------9---9------|
|-5----------5----------3----------7----------|
|---------------------------------------------|

play Riff A x4 beneath Lead A x4

Lead A:
|---------------------------------------------|
|---------------------------------------------|
|-7777777777777777777777555555555599999999999-|
|---------------------------------------------|
|---------------------------------------------|
|---------------------------------------------|

[ Tab from: http://www.guitartabs.cc/tabs/i/inquisition/of_blood_and_darkness_we_are_born_tab.html ]
Riff B:                                                             x4
|------------------------------------------------------------------|
|------------------------------------------------------------------|
|-7-------7-------7-------7----------------------------------------|
|-7-------7-------7-------7----------------------------------------|
|-5-------5-------5-------5----------------------------------------|
|---------------------------------5-5-5-5-5-5-5-5-3-3-3-3-1-1-1-1--|

play Riff B x4 beneath Lead B x4

Lead B:
|--------------------------------13bh-pb1313-13r-------------------|
|------------------------------------------------13bf-pb1313-13r---|
|-7~---------------------------------------------------------------|
|------------------------------------------------------------------|
|------------------------------------------------------------------|
|------------------------------------------------------------------|

play Riff A x4 with Lead A x4
play Riff A x4 with Lead A x4
play Riff B x4
play Riff B x4 with Lead B x4

Riff C1:                                           x2
|--------------------------------------------------|
|--------------------------------------------------|
|-7---7\5-5/7-7---7\5-5/7-7---7\5-5/7-7---7\5-5/7--|
|-0---7\5-5/7-0---7\5-5/7-0---7\5-5/7-0---7\5-5/7--|
|-0---5\3-3/5-0---5\3-3/5-0---5\3-3/5-0---5\3-3/5--|
|--------------------------------------------------|

play Riff C1 x4


Riff C2                                            x2
|--------------------------------------------------|
|--------------------------------------------------|
|-7---7\5-5/7-7---7\5-5/7-7---7\5-5/7-7---7\5-5/7--|
|-5---7\5-5/7-5---7\5-5/7-5---7\5-5/7-5---7\5-5/7--|
|-5---5\3-3/5-5---5\3-3/5-5---5\3-3/5-5---5\3-3/5--|
|--------------------------------------------------|

play Riff C1 x6
fadeout Riff C2
Comments