Inquisition - Magnificent Glorification Of Lucifer Chords & Tabs

 

Magnificent Glorification Of Lucifer Chords & Tabs

Inquisition Chords & Tabs

Version: 1 Type: Tab 0 ratings
1 star 2 stars 3 stars 4 stars 5 stars
comments

Magnificent Glorification Of Lucifer Tab

   
Band:  INQUISITION
Song:  MAGNIFICENT GLORIFICATION OF LUCIFER
Album: MAGNIFICENT GLORIFICATION OF LUCIFER
Label: NO COLOURS RECORDS (2004)

Transcribed By: Tony Baranowski (ezurate@sbcglobal.net)
Version 1.0 - December 08, 2004

Notation:
( = ghost/sustained notes

Tuning: D/G/C/F/A/D

  Intro/Interlude
  Fmaj7
  1e&A 2e&A 3e&A 4e&  A
|--------1-------1-1-(1)-|
|---1---1-1---1---1------|
|--2-2-------2-2---------|
|------------------------|
|-0----0----0------------|
|------------------------|
[ Tab from: http://www.guitartabs.cc/tabs/i/inquisition/magnificent_glorification_of_lucifer_tab.html ]
  Verse
                Fmaj7
  1 & 2 e  &  a 3 & a 4 &
|-------------------1-----|
|-----------------1-------|
|---------------2-----2---|
|---0---------------------|
|-3---2-0-(0)-0---------0-|
|-------------------------|

  Riff
  Gm    Fm
  1 & 2 3 & 4
|-3-3---1-1---|
|-3-3---1-1---|
|-3-3---1-1---|
|-5-5---3-3---|
|-----0-----0-|
|-------------|

  Chorus
  A5  Bb5
  1 & 2 &  3 & 4 &
|------------------|
|------------------|
|------------------|
|------------------|
|-7-7-8-7--7-7-8-7-|
|-5-5-6-5--5-5-6-5-|


Full Score Arrangement:
Intro:     4x
Verse:     8x
Riff:      1x
Verse:     8x
Riff:      1x
Chorus:   16x
Riff:      1x
Chorus:    8x
Interlude: 4x
Verse:    19.5x
Comments