Inquisition - Embraced By The Unholy Powers Of Death And Destruction Chords & Tabs

 

Embraced By The Unholy Powers Of Death And Destruction Chords & Tabs

Inquisition Chords & Tabs

Version: 1 Type: Tab 0 ratings
1 star 2 stars 3 stars 4 stars 5 stars
comments

Embraced By The Unholy Powers Of Death And Destruction Tab

   
Band:  Inquisition
Album: Invoking The Majestic Throne of Satan
Song:  Embraced By The Unholy Powers of Death and Destruction
Label: War Hammer Records (2002)

Transcribed By: nyanchuk
Email:          uklearpower@hotmail.com


Tunning D G C F A D


Riff A:                            x4
|----------------------------------|
|----------------------------------|
|---0-1-0---0-1-0---0-1-0----------|
|-2-------2-------2-------2-5-6-3--|
|-2-------2-------2-------2-5-6-3--|
|-0-------0-------0-------0-3-4-1--|

Riff B:                            x4
|----------------------------------|
|----------------------------------|
|----------------------------------|
|-33223322336633223322332233663322-|
|-33223322336633223322332233663322-|
|-11001100114411001100110011441100-|

 Riff C1:                          x4
|----------------------------------|
|----------------------------------|
|----------------------------------|
|----------------------------------|
|-33332222555533336666555533332222-|
|-00000000000000000000000000000000-|

Fill:                            x1
|--------------------------------|
|--------------------------------|
|-0-1-0---0-1-0---0-1-0----------|
|-------2-------2-------2-5-6-3--|
|-------2-------2-------2-5-6-3--|
|-------0-------0-------0-3-4-1--|

play Riff A x3
play Riff B x4
[ Tab from: http://www.guitartabs.cc/tabs/i/inquisition/embraced_by_the_unholy_powers_of_death_and_destruction_tab.html ]
 Riff C2:                    x1 Riff C3:                          x3
|------------------------------|----------------------------------|
|------------------------------|----------------------------------|
|------------------------------|----------------------------------|
|------------------------------|----------------------------------|
|-3333222255553333666655553333-|-22223333222255553333666655553333-|
|-0000000000000000000000000000-|-00000000000000000000000000000000-|


 Riff D:                                                        x2
|--------------------------------------------------------------|
|----0--1-----0-----0--1-----0-----0--1-----0-----0--1-----0---|
|----------2--------------2--------------2--------------2------|
|-2--------------2--------------2--------------2---------------|
|-2--------------2--------------2--------------2---------------|
|-0--------------0--------------0--------------0---------------|
|Lead:                                                         |
|-13bh-r-13bh-13bh-13bh-r--------------------------------------|
|------------------------12~----9bh-r-9bh-9bh-9bh-r------------|
|---------------------------------------------------9~---------|
|--------------------------------------------------------------|
|--------------------------------------------------------------|
|--------------------------------------------------------------|


 Riff E:                                                            x1
|------------------------------------------------------------------|
|------------------------------------------------------------------|
|------------------------------------------------------------------|
|-2222222222225-5-2222222222225-5-2222222222225-5-2222222222225-5--|
|-2222222222225-5-2222222222225-5-2222222222225-5-2222222222225-5--|
|-000000000000303-000000000000303-000000000000303-000000000000303--|

play Riff E x2
play Riff D (no lead) x2
play Riff E x6
fadeout Riff E
Comments