Innuendo - Belaian Jiwa Chords & Tabs

 

Belaian Jiwa Chords & Tabs

Innuendo Chords & Tabs

Version: 1 Type: Tab 0 ratings
1 star 2 stars 3 stars 4 stars 5 stars
comments

Belaian Jiwa Tab

   
Belaian Jiwa
By: Innuendo (A Malay Band)

Standard Tuning

G      320033
D/F#   200232
F      133211
E      022100
Am7    002010
D7sus4 xx0213
D/C    300232
Bm     x24432
Em     022000
B7     021202
D7     xx0212
A      002220

INTRO

	G		D/F#			F		      E
e-----------------------------------------|---------------------------------------------|
B----------------0-----3------------------|-------------------0---3--0------------------|
G-------0--2~-------------2---------2~----|-------------2~----------------------2----1--|
D----0---------------------------0--------|----------0-----------------------0----------|
A-----------------------------0-----------|-------3----------------------2--------------|
E--3----------------------2---------------|----1---------------------0---------------0--|



	Am7					D7sus4
e-------------------------------------3~---|---------------3------------3----------3----|
B------------0---1--------0--1--0--1-------|------------3-----3-----3-------------------|
G--------2-------------2-------------------|--------5------------5----------------------|
D-----2-------------2----------------------|-----4--------------------------------------|
A--0---------------------------------------|--5-----------------------------------------|
E------------------------------------------|--------------------------------------------|


VERSE 1

G    D/F# F        E        Am7 
 Seindah   tiada lagi kau kuingatkan
  D7sus4
Sayang kau hilang
G     D/F# F        E           Am7   G      Am7 D
 Menanti    biar sampai akhir hayatku di dunia  ini


CHORUS 1
[ Tab from: http://www.guitartabs.cc/tabs/i/innuendo/belaian_jiwa_tab.html ]
C         D/C      Bm         Em
 Kau tahu betapa kusayang padamu
  Am7       D             G  F   G
Hanya bidadari sebagai ganti ho..wo..
C         D/C        B7   Em
 Hanya takdir menentukan ia
   Am7  D/C  G  D/F# Am7 D7sus4
Oh belaian jiwa..     hey..


VERSE 2

G     D/F# F          E          Am7 
 Oh angin   sampaikan laguku padanya
     D7sus4 D7
Yang sedih  pilu
G      D/F# F       E          Am7  G
 Terimalah   laguku jadi teman hidupmu
        C   D
Untuk selamanya


CHORUS 2

C         D/C      Bm         Em
 Kau tahu betapa kusayang padamu
  Am7       D             G  F   G
Hanya bidadari sebagai ganti ho..wo..
C         D/C        B7   Em
 Hanya takdir menentukan ia
   Am7  D/C  G  D/F# F E   Am7 D
Oh belaian jiwa..    hoho.. hii..


BRIDGE

G D/F#
Sayang, kembalilah padaku
F E
Ku rindu belaianmu
Am7 G
Ku berharap kita bersama
C D
Selamanya


CHORUS 3

C         D/C      Bm         Em
 Kau tahu betapa kusayang padamu
  Am7       D             G  F   G
Hanya bidadari sebagai ganti ho..wo..
C         D/C        B7   Em
 Hanya takdir menentukan ia
   Am7  D/C  C D/C
Oh belaian jiwaaa..
  Bm         Em
kusayang padamu
  Am7       D             G  F   G
Hanya bidadari sebagai ganti ho..wo..
C         D/C        B7   Em A
 Hanya takdir menentukan ia..wo..


OUTRO

Am7 Bm C    Am7 Bm  E
Be  laian.. ho..ho..hoo.. 
Am7 Bm C    D G D/F# F E
Be  laian.. jiwaa..
Am7 Bm C  D7 G
Be  laian ji wa..
Comments