Innovia - Alone Chords & Tabs

 

Alone Chords & Tabs

Innovia Chords & Tabs

Version: 1 Type: Tab 0 ratings
1 star 2 stars 3 stars 4 stars 5 stars
comments

Alone Tab

   
-------------------------------------------------------------------------------
			     Alone - InnoVia
-------------------------------------------------------------------------------

Tabbed By:Jonathan Roake 
e-mail:The_Devils_Coming@hotmail.com 

Tuning:Standerd

Verse 1

G|------2---------2---------2---------2---------2---------2---------2------|
D|-2---------2---------2---------2---------2---------2---------2-----------|
A|-------------------------------------------------------------------------|
E|-------------------------------------------------------------------------|

G|------2---------2---------2---------2---------2---------2---------2------|
D|-2---------2---------2---------2---------2---------2---------2-----------|
A|-------------------------------------------------------------------------|
E|-------------------------------------------------------------------------|

G|------2---------2--------------------|
D|-2---------2-------------------------|
A|-------------------------------------|
E|-------------------------------------|

Pre Chorus

G|------2----0----2---------2----0----2----|
D|-2-------------------2-------------------|
A|-----------------------------------------|
E|-----------------------------------------|

G|------2----0----2---------2----0----2----|
D|-2-------------------2-------------------|
A|-----------------------------------------|
E|-----------------------------------------|

G|------2---------2---------2---------2----|
D|-2---------2---------2---------2---------|
A|-----------------------------------------|
E|-----------------------------------------|

Chorus

G|-5-5-5-5-0-0-0-0-6-6-6-6-5-5-5-5--5-5-5-5-0-0-0-0-6-6-6-6-5-5-5-5---|
D|--------------------------------------------------------------------|
A|--------------------------------------------------------------------|
E|--------------------------------------------------------------------|

G|-5-5-5-5-0-0-0-0-6-6-6-6-5-5-5-5----|
D|------------------------------------|
A|------------------------------------|
E|------------------------------------|

G|-5-5-5-5-0-0-0-0-6-6-6-6-5-5-5-5--5-5-5-5-0-0-0-0-6-6-6-6-5-5-5-5----|
D|---------------------------------------------------------------------|
A|---------------------------------------------------------------------|
E|---------------------------------------------------------------------|

G|---------0-0-0-0-6-6-6-6-5-5-5-5----------0-0-0-0-6-6-6-6-5-5-5-5----|
D|-2-2-2-2--------------------------2-2-2-2----------------------------|
A|---------------------------------------------------------------------|
E|---------------------------------------------------------------------|

G|---------0-0-0-0-6-6-6-6-5-5-5-5----------0-0-0-0-6-6-6-6-5-5-5-5----|
D|-2-2-2-2--------------------------2-2-2-2----------------------------|
A|---------------------------------------------------------------------|
E|---------------------------------------------------------------------|

G|---------0-0-0-0-6-6-6-6-5-5-5-5----|
D|-2-2-2-2----------------------------|
A|------------------------------------|
E|------------------------------------|


Verse 2

G|------2---------2---------2---------2---------2---------2---------2------|
D|-2---------2---------2---------2---------2---------2---------2-----------|
A|-------------------------------------------------------------------------|
E|-------------------------------------------------------------------------|

G|------2---------2---------2---------2---------2---------2---------2------|
D|-2---------2---------2---------2---------2---------2---------2-----------|
A|-------------------------------------------------------------------------|
E|-------------------------------------------------------------------------|

G|------2---------2--------------------|
D|-2---------2-------------------------|
A|-------------------------------------|
E|-------------------------------------|


Pre Chorus

G|------2----0----2---------2----0----2----|
D|-2-------------------2-------------------|
A|-----------------------------------------|
E|-----------------------------------------|

G|------2----0----2---------2----0----2----|
D|-2-------------------2-------------------|
A|-----------------------------------------|
E|-----------------------------------------|

G|------2---------2---------2---------2----|
D|-2---------2---------2---------2---------|
A|-----------------------------------------|
E|-----------------------------------------|

Chorus
[ Tab from: http://www.guitartabs.cc/tabs/i/innovia/alone_tab.html ]
G|-5-5-5-5-0-0-0-0-6-6-6-6-5-5-5-5--5-5-5-5-0-0-0-0-6-6-6-6-5-5-5-5---|
D|--------------------------------------------------------------------|
A|--------------------------------------------------------------------|
E|--------------------------------------------------------------------|

G|-5-5-5-5-0-0-0-0-6-6-6-6-5-5-5-5----|
D|------------------------------------|
A|------------------------------------|
E|------------------------------------|

G|-5-5-5-5-0-0-0-0-6-6-6-6-5-5-5-5--5-5-5-5-0-0-0-0-6-6-6-6-5-5-5-5----|
D|---------------------------------------------------------------------|
A|---------------------------------------------------------------------|
E|---------------------------------------------------------------------|

G|---------0-0-0-0-6-6-6-6-5-5-5-5----------0-0-0-0-6-6-6-6-5-5-5-5----|
D|-2-2-2-2--------------------------2-2-2-2----------------------------|
A|---------------------------------------------------------------------|
E|---------------------------------------------------------------------|

G|---------0-0-0-0-6-6-6-6-5-5-5-5----------0-0-0-0-6-6-6-6-5-5-5-5----|
D|-2-2-2-2--------------------------2-2-2-2----------------------------|
A|---------------------------------------------------------------------|
E|---------------------------------------------------------------------|

G|---------0-0-0-0-6-6-6-6-5-5-5-5----|
D|-2-2-2-2----------------------------|
A|------------------------------------|
E|------------------------------------|

Verse 3

G|------2---------2---------2---------2---------2---------2---------2------|
D|-2---------2---------2---------2---------2---------2---------2-----------|
A|-------------------------------------------------------------------------|
E|-------------------------------------------------------------------------|

G|------2---------2---------2---------2---------2---------2---------2------|
D|-2---------2---------2---------2---------2---------2---------2-----------|
A|-------------------------------------------------------------------------|
E|-------------------------------------------------------------------------|

G|------2---------2--------------------|
D|-2---------2-------------------------|
A|-------------------------------------|
E|-------------------------------------|

Pre Chorus

G|------2----0----2---------2----0----2----|
D|-2-------------------2-------------------|
A|-----------------------------------------|
E|-----------------------------------------|

G|------2----0----2---------2----0----2----|
D|-2-------------------2-------------------|
A|-----------------------------------------|
E|-----------------------------------------|

G|------2---------2---------2---------2----|
D|-2---------2---------2---------2---------|
A|-----------------------------------------|
E|-----------------------------------------|

Chorus

G|-5-5-5-5-0-0-0-0-6-6-6-6-5-5-5-5--5-5-5-5-0-0-0-0-6-6-6-6-5-5-5-5---|
D|--------------------------------------------------------------------|
A|--------------------------------------------------------------------|
E|--------------------------------------------------------------------|

G|-5-5-5-5-0-0-0-0-6-6-6-6-5-5-5-5----|
D|------------------------------------|
A|------------------------------------|
E|------------------------------------|

G|-5-5-5-5-0-0-0-0-6-6-6-6-5-5-5-5--5-5-5-5-0-0-0-0-6-6-6-6-5-5-5-5----|
D|---------------------------------------------------------------------|
A|---------------------------------------------------------------------|
E|---------------------------------------------------------------------|

G|---------0-0-0-0-6-6-6-6-5-5-5-5----------0-0-0-0-6-6-6-6-5-5-5-5----|
D|-2-2-2-2--------------------------2-2-2-2----------------------------|
A|---------------------------------------------------------------------|
E|---------------------------------------------------------------------|

G|---------0-0-0-0-6-6-6-6-5-5-5-5----------0-0-0-0-6-6-6-6-5-5-5-5----|
D|-2-2-2-2--------------------------2-2-2-2----------------------------|
A|---------------------------------------------------------------------|
E|---------------------------------------------------------------------|

G|---------0-0-0-0-6-6-6-6-5-5-5-5----|
D|-2-2-2-2----------------------------|
A|------------------------------------|
E|------------------------------------|



| /  slide up
|   slide down
| h  hammer-on
| p  pull-off
| ~  vibrato
| +  harmonic
| x  Mute note
===============================================================================
Comments