Inme - You Spin Me Around Chords & Tabs

 

You Spin Me Around Chords & Tabs

Inme Chords & Tabs

Version: 1 Type: Bass Tab 0 ratings
1 star 2 stars 3 stars 4 stars 5 stars
comments

You Spin Me Around Bass Tab

-------------------------------------------------------------------------------
			   You spin me around - INME
-------------------------------------------------------------------------------

Ace song, i think its a B side or summit but it should have been on white butterfly.
Worked this out when i was randomly playing open A and it just kinda went from there.

Tabbed By : Twig

Tuning: Standard 4 stringed


Intro
G|-----------------------|
D|-----------------------|
A|-0--0--0--0--3--3------|
E|------------------3--3-|

G|----------------------------------------------------------------|
D|----------------------------------------------------------------|
A|-0-0-0-0-0-0-0-0-3-3-3-3---------0-0-0-0-0-0-0-0-5-5-5-5--------|
E|-------------------------3-3-3-3------------------------3-3-3-3-|
(same timing but the second part is played with more beats in it)

G|--------------------------------------------------|
D|--------------------------------------------------|
A|-5-5-5-5-3-3-3-3-1-1-1-1--------------------------|
E|------------------------5-5-5-5-3-3-3-3-3-3-3-3-3-|
[ Tab from: http://www.guitartabs.cc/tabs/i/inme/you_spin_me_around_btab.html ]
Verse
G|----------------------------------------------------------------|
D|----------------------------------------------------------------|
A|--------------------------------3-3-3-3-3-3-3-3-3-3-3-3-3-3-3-3-| X2
E|-3-3-3-3-3-3-3-3-3-3-3-3-3-3-3-3--------------------------------|


Fill in the verse
G|----------------------------------------------------------------|
D|----------------------------------------------------------------|
A|----------------1-1-1-1-1-1-1-1-3-3-3-3-3-3-3-3-5-5-5-5-5-5-5-5-| X1
E|-3-3-3-3-3-3-3-3------------------------------------------------|


Chorus
G|----------------------------------------------------------------|
D|----------------------------------------------------------------|
A|-0-0-0-0-0-0-0-0-3-3-3-3---------0-0-0-0-0-0-0-0-5-5-5-5--------|
E|-------------------------3-3-3-3------------------------3-3-3-3-|
(same as the second part of the intro)


Play order
Start to 0:18 - Intro (sounds good with distortion)
0:19 to 1:03 - Verse played twice with 2 fills
1:03 to 1:20 - Chorus (miss beats on the last time through
1:20 to 1:42 - Verse played once
1:42 to 1:57 - Chorus
1:57 to 2:12 - Verse (only play the first bit once)
2:12 to 2:27 - Chorus
2:27 to End - Play verse as an outro

Any problems, criticisms or whatever, e-mail me on nexus1101@hotmail.co.uk
Comments