Inme - Wounds Chords & Tabs

 

Wounds Chords & Tabs

Inme Chords & Tabs

Version: 2 Type: Tab 0 ratings
1 star 2 stars 3 stars 4 stars 5 stars
comments

Wounds Tab

   
drop d tuning

e|
b|
g|
d|
a|
d|


h = hammer on

~ = let ring
* = harmonic

Intro:

E----------------------------------1-|
B------------------------------------|
G-----------2--------------------3---|
D------------------------------------|
A-----1---1-----1---1------1---1-----|
D-1-1---1-----1---1----1-1---1-------|


verse(played at start):


E------------------------------------------|------------------------------------------|
B------------------------------------------|------------------------------------------|
G------------------------------------------|-----------7~--------5~---------3~--2h3-2-|
D-----------3~-------------------1~--------|------------------------------------------|x2
A-----3---3------3---3-----1---1-----1---1-|-----5---5-----5---5------5---5-----------|
D-3-3---3------3---3---1-1---1-----1---1---|-5-5---5-----5---5------5---5-------------|


E-------------------|---------------------|
B-------------------|---------------------|
G------2------5*----|---------------------|
D-3~-----1~------5*-|--5-5-5-5--555-5-5-5-|
A-------------------|--5-5-5-5--555-5-5-5-|
D-------------------|--5-5-5-5--555-5-5-5-|


heavy start bit:


E-------------------------------------------------------------------------------------|
B-------------------------------------------------------------------------------------|
G----------5--------------------3----------------------7---5--------------------------|
D-3-3-3-3-----3-3-3-3--1-1-1-1-----1-1-1-1--5-5-5-5--5---5----5/7-7-7-7-7-8-8-8-7h8-7-| x2
A-3-3-3-3-----3-3-3-3--1-1-1-1-----1-1-1-1--5-5-5-5--5---5----5/7-7-7-7-7-8-8-8-7h8-7-|
D-3-3-3-3-----3-3-3-3--1-1-1-1-----1-1-1-1--5-5-5-5--5---5----5/7-7-7-7-7-8-8-8-7h8-7-|


repeat: verse x4(extra comes in on the third time till the fourth)


extra guitar(verse):

[ Tab from: http://www.guitartabs.cc/tabs/i/inme/wounds_tab_ver_2.html ]
E----------------------------------------------------------------------------15~-|
B----------------17~-----------------15~-----------------19~---------------------|
G--------------------------------------------------------------------------------|
D--------------------------------------------------------------------------------|
A-------15----15------------13----13------------17----17------------17----17-----|
D-15-15----15---------13-13----13---------17-17----17---------17-17----17--------|
                    |


chorus:


E------------------------------------| |---------------------|
B------------------------------------| |---------------------|
G---------------------3--------------| |---------------------|
D-5-5-5-4-8-8-8-1-1-1-1-1-1-1-1----4-| |-1-1-1-1---111-1-1-1-|
A-5-5-5-4-8-8-8-1-1-1---1-1-1-1----4-| |-1-1-1-1---111-1-1-1-|
D-5-5-5-4-8-8-8-1-1-1---1-1-1-1----4-| |-1-1-1-1---111-1-1-1-|
                                   |
solo:

E---------18--17--15--17--18--17-------18--17--14--15--17--14------------------|
B-----15-----------------------------------------------------------------------|
G-15------------------------------14~------------------------------------------|
D------------------------------------------------------------------------------|
A------------------------------------------------------------------------------|
D------------------------------------------------------------------------------|

E---------18--17--20--15--17-18-17-15-------18--17-----------------------------|
B-----15-----------------------------------------------------------------------|
G-15-----------------------------------14~----------14-15-14-------------------|
D-------------------------------------------------------------15--14-15-14-----|
A---------------------------------------------------------------------------15-|
D------------------------------------------------------------------------------|

repeat:verse x2,chorus

interlude:

E----------------------------------------------------------------------|
B----------------------------------------------------------------------|
G-------------------------------------------5----------------3---------|
D-5-5-5-5-5-5---8-8-8-8-8/10\8-8-8-8--3-3-3---3-3-3-3--1-1-1---1-1-1-1-|
A-5-5-5-5-5-5---8-8-8-8-8/10\8-8-8-8--3-3-3---3-3-3-3--1-1-1---1-1-1-1-|
D-5-5-5-5-5-5---8-8-8-8-8/10\8-8-8-8--3-3-3---3-3-3-3--1-1-1---1-1-1-1-|
repeat solo


end:


E---------------------------15-|
B----------13-15-16-15-13---15-|
G-------15------------------15-|
D----15---------------------15-|
A-13------------------------13-|
D------------------------------|
Comments