Inme - Web Chords & Tabs

 

Web Chords & Tabs

Inme Chords & Tabs

Version: 1 Type: Tab 0 ratings
1 star 2 stars 3 stars 4 stars 5 stars
comments

Web Tab

This is the B-Side on the firefly single its another
extremely amazing piece of work from InMe

Standars Tunining - EADGBE

RIFF 1

E----------------------------------|
A----------------------------------|
D----------------------------------|
G----------------------------------|
B---------------3-3-3/1-1-0-0-0-0--|
E-0-X-X-X-X-X-0--------------------| times 4

mute the string on the 4th fret and it only touch 
it barely so it rings in high pitch

Riff 2
[ Tab from: http://www.guitartabs.cc/tabs/i/inme/web_tab.html ]
E----------------------------------|
A----------------------------------|
D----------------------------------|
G----------------------------------|
B-2-2--2-3-2-3--2-3-3-5-4-3-3------|
E-0-0--0-1-0-1--0-1-1-3-2-1-1------|

Riff 3

E----------------------------------|
A----------------------------------|
D---2-2---2---2---2-2--------------|
G--2-2-2-2-2-2---2-2-2-------------|
B-0-----0---0---0-----0------------|
E----------------------------------|

Riff 4

E----------------------------------|
A----------------------------------|
D----------------------------------|
G----------------------------------|
B-7-7--7-7-6-3-3-3-3---------------|
E-5-5--5-5-4-1-1-1-1-0-0-X-X-------|

thats basically it nuthin fancy jus plain solid
chunky riffs and thats why InMe Rock!!! Have Fun
Comments