Inme - Underdose Chords & Tabs

 

Underdose Chords & Tabs

Inme Chords & Tabs

Version: 4 Type: Tab 0 ratings
1 star 2 stars 3 stars 4 stars 5 stars
comments

Underdose Tab

   
Artist: Inme
Song: Underdose
From the album Overgrown Eden

Tabbed by Colin MacSweeny
thirdeye_04@yahoo.co.uk

This tab is all my own work
All comments and corrections are welcome, this is my first tab but I reckon its about 
correct.

Drop-D tuning

Intro

PART 1
E----------------------------------------------------------------|
B----------------------------------------------------------------|
G----------------------------------------------------------------|
D----------------------------------------------------------------|
A-7------7------7---7----5-------5-------5-----------------------|
D---0-0-0--0-0-0--0---0----0-0-0---0-0-0-------------------------|

REST

PART 2 (x3)
E-------------------------------------------------------------------------|
B-------------------------------------------------------------------------|
G-------------------------------------------------------------------------|
D-------------------------------------------------------------------------|
A-7------7------7---7----5-------5-------5---5---4-------4-------4---4----|
D---0-0-0--0-0-0--0---0----0-0-0---0-0-0---0---0---0-0-0---0-0-0---0---0--|

E----------------------------------------------------------------------|
B----------------------------------------------------------------------|
G--999--777-6----------------------------------------------------------|
D--999--777-6---7-xx-7-x-7---------------------------------------------|
A--777--555-4---7-xx-7-x-7---------------------------------------------|
D---------------7-xx-7-x-7---------------------------------------------|

VERSE

E----------------------------------------------------------------|
B----------------------------------------------------------------|
G----------------------------------------------------------------|
D----------------------------------------------------------------|
A--7-0------7-0-----7-0-------7-0-00-7-0-00-7-0------------------|
D--7-0------7-0-----7-0-------7-0-00-7-0-00-7-0------------------|
                                  PM     PM

CHORUS
[ Tab from: http://www.guitartabs.cc/tabs/i/inme/underdose_tab_ver_4.html ]
E------------------------------------------------------------------------|
B------------------------------------------------------------------------|
G--3-3-3--3-3-3--3/5-5-5--5-5-5-5------------------------5---------------|
D--3-3-3--3-3-3--3/5-5-5--5-5-5-5---0-7--00-0-0-0-0----0---00--0-0-0-0---|
A--1-1-1--1-1-1--1/3-3-3--3-3-3-3---0----00-0-0-0-0----0---00--0-0-0-0---|
D-----------------------------------0----00-0-0-0-0----0---00--0-0-0-0---|

INTERLUDE

E----------------------------------------------------------------|
B----------------------------------------------------------------|
G----------------------------------------------------------------|
D--------9--------9---------9-------9----------------------------|
A--------9--------9---------9-------9----------------------------|
D--0--0--9-0--0-0-9-00--0-0-9--0-0--9----------------------------|

E----------------------------------------------------------------------|
B----------------7-----------------------------------------------------|
G-------7---------------7----------------------------------------------|
D-4-7-5---55-5-5---55-5---55-5-5--7-10--9--11-99-9--11-99-9-11-9-9-9---|
A-4-7-5---55-5-5---55-5---55-5-5--7-10--9--9--99-9--9--99-9-9--9-9-9---|
D-4-7-5---55-5-5---55-5---55-5-5--7-10--9-----99-9-----99-9----9-9-9---|

play 4 times then

E-----------------------------------------------|
B-----------------------------------------------|
G-----------------------------------------------|
D-----------------------------------------------|
A-7--------7------7-----------------------------|
D--0--0-0---0--0-0------------------------------|

And then the outro after the final chorus
E----------------------------------------------------------------|
B----------------------------------------------------------------|
G----------------------------------------------------------------|
D--5-xx-5-xx-5-xx-5-xx-5-xx-5-xx-5-xx-5\-------------------------|
A--5-xx-5-xx-5-xx-5-xx-5-xx-5-xx-5-xx-5\--7-0--------------------|
D--5-xx-5-xx-5-xx-5-xx-5-xx-5-xx-5-xx-5\--7-0--------------------|
Comments