Inme - Underdose Chords & Tabs

 

Underdose Chords & Tabs

Inme Chords & Tabs

Version: 2 Type: Tab 0 ratings
1 star 2 stars 3 stars 4 stars 5 stars
comments

Underdose Tab

   
InMe-Underdose

look out 4 these they will be big as soon as people notice them and then they will be exploited like everything
else in this fucked up world.  i like this song though so i tabbed it. if its wrong i dont care

tuning: d

intro.

d
a-7----7h877-7-----7-----7-
d--00-0-----0--00-0--00-0--


riff A (After lil intro)

d
a-7----7-----7h877-5-----5-----5h655-4-----4-----4h544--10-9-7-5-4-4p0-
d--00-0--00-0-----0--00-0--00-0-----0--00-0--00-0-----0-10-9-7-5-4-4p0-   (x2)

verse

d-----------------------------
a-7p0 (x3)--7p0-xxx-7p0-xxx-7- (x2)
d-----------7p0-xxx-7p0-xxx-7-

Chorus
[ Tab from: http://www.guitartabs.cc/tabs/i/inme/underdose_tab_ver_2.html ]
d----------------------------12-12-12-12-12-12-12-12-12-------7~------7~-
a-12-12-12-12-12-12-12-12-12-12-12-12-12-12-12-12-12-12-0-0-0--0-0-0-0--- (x2)
d-12-12-12-12-12-12-12-12-12---------------------------------------------

repeat verse and chorus

Riff B
d
a-7----7-----7h877-10-9-7-5-4-4~
d--00-0--00-0------10-9-7-5-4-4~

repeat riff A

Riff C
d-x-x5-xxx5-xx-x5-x-7-10-9------7---------------------xxx-7-10-9
a-x-x7-xxx7-xx-x7-x-7-10-9------------7-----5-----4-0-xxx-7-10-9
d-x-x7-xxx7-xx-x7-x-7-10-9--0000--00-0--0000--00-0----xxx-7-10-9

Chorus

d-7xx7xx7xx7x7
a-7xx7xx7xx7x7
d-7xx7xx7xx7x7
Comments