Inme - Trenches Chords & Tabs

 

Trenches Chords & Tabs

Inme Chords & Tabs

Version: 1 Type: Tab 0 ratings
1 star 2 stars 3 stars 4 stars 5 stars
comments

Trenches Tab

Song title: Trenches
Artist: Inme
Album: Overgrown Eden
Tabbed by: pnk_rok_animal

Really good song... this took me ages to work out, as with most of 
Inme's stuff, its Drop-D.... just listen to the song for where to come in with all the riffs and the timing...here we go…

* = Harmonic
s = slide to
~ = let ring
p = pull off
h = hammer on
x = mute/scratch



Intro (with a chorus or low set flanger): 
E|-------------------------------------------------------------|
B|-------------------------------------------------------------|
G|-------------------------------------------------------------|
D|--------5*-------------4*-------------5*-------------7*------|
A|----5*----5*-------4*----4*-------5*----5*-------7*----7*----|
D|--5*--5*----5*---4*--4*----4*---5*--5*----5*---7*--7*----7*--|



Clean part 1 (2nd guitar plays riff 1 with heavy flanger):
E|--------------------------------------------------------------|
B|--------------------------------------------------------------|
G|-------7-------------11-------------12---------------14-------|
D|----7----7-------11----11-------12----12---------14----14-----|
A|--5---5----7--7s9---9----9--9s10--10----10--10s12--12----12---|
D|--------------------------------------------------------------|

Clean part 2(2nd guitar plays riff 2 with heavy flanger):
E|--------10----------5----------7----------8-------|
B|----11----11-----6----6-----8----8-----9----9-----|
G|--10--10----10s5---5----6s7---7----7s8---8----9---|
D|--------------------------------------------------|
A|--------------------------------------------------|
D|--------------------------------------------------|
[ Tab from: http://www.guitartabs.cc/tabs/i/inme/trenches_tab.html ]
Clean part 3(2nd guitar plays this with heavy flanger):
E|------------------------------------------------------x---|
B|------------------------------------------------------x---|
G|--7-7--7s11-11-11-11-11s12-12-12-12-12x14-14-14-14-14s0---|
D|--7-7--7s11-11-11-11-11x12-12-12-12-12s14-14-14-14-14s0---|
A|--5-5--5s9--9--9--9--9-x10-10-10-10-10x12-12-12-12-12s0---|
D|--x-x--x-x--x--x--x--x-x-x--x--x--x--xx-x--x--x--x--x-x---|



Riff 1 (strum these chords, both guitars, very heavy distortion): 
E|---------------|
B|---------------|
G|---------------|
D|--0--4--5--7---|
A|--0--4--5--7---|
D|--0--4--5--7---|

Riff 2 (strum these chords, both guitars, very heavy distortion): 
E|---------------|
B|---------------|
G|---------------|
D|--0--3--5--7---|
A|--0--3--5--7---|
D|--0--3--5--7---|



Solo, guitar 1(heavy distortion and flanger):
E|-------------------------------------------------------------|
B|-------------------------------------------------------------|
G|-------------------------------------------------------------|
D|--------5*-------------4*-------------5*-------------7*------|
A|----5*----5*-------4*----4*-------5*----5*-------7*----7*----|
D|--5*--5*----5*---4*--4*----4*---5*--5*----5*---7*--7*----7*--|

Solo, guitar 2(heavy distortion):
E|------------------------------------------------------x---|
B|------------------------------------------------------x---|
G|--7-7--7s11-11-11-11-11s12-12-12-12-12s14-14-14-14-14s0---|
D|--7-7--7s11-11-11-11-11x12-12-12-12-12s14-14-14-14-14s0---|
A|--5-5--5s9--9--9--9--9-x10-10-10-10-10s12-12-12-12-12s0---|
D|--x-x--x-x--x--x--x--x-x-x--x--x--x--xx-x--x--x--x--x-x---|



Outro (guitars 1 and 2, heavy flanger):
E|-----------------------------------------------------------------|
B|-----------------------------------------------------------------|
G|-----------------------------------------------------------------|
D|--------5*-------------4*-------------5*-------------7*----------|
A|----5*----5*-------4*----4*-------5*----5*-------7*----7*--7*s0--|
D|--5*--5*----5*---4*--4*----4*---5*--5*----5*---7*--7*----7*------|


thats it... cya thanks...
Comments