Inme - Safe In A Room Chords & Tabs

 

Safe In A Room Chords & Tabs

Inme Chords & Tabs

Version: 1 Type: Tab 0 ratings
1 star 2 stars 3 stars 4 stars 5 stars
comments

Safe In A Room Tab

   
----------------------------------------------------------------------------
			     Safe in a room - InMe
----------------------------------------------------------------------------
Tabbed by: Nirvanboy183
Email:

Tuning: Normal

Guitar1 
Intro

     ddd uu udu  ddd uu udu  ddd uu udu  ddd uu udu  ddd uu udu
e|-------------------------------------------------------------------------|
B|-------------------------------------------------------------------------|
G|---------------------------6-----------6-----------4---------------------|
D|----7----------7-----------6-----------6-----------4---------------------|
A|----7----------7-----------4-----------4-----------2---------------------|
E|12\-5----------5---------------------------------------------------------|


    ddd uu udu  ddd uu udu   ddd uu udu
e|-------------------------------------------------------------------------|
B|-------------------------------------------------------------------------|
G|-------------------------------------------------------------------------|
D|--6-----------7------------7---------------------------------------------|
A|--6-----------7------------7---------------------------------------------|
E|--4-----------5------------5---------------------------------------------|


Verse
e|-------------------------------------------------------------------------|
B|-------------------------------------------------------------------------|
G|-------------------------------------------------------------------------|
D|--h-----------------------2---------------------------------------4------|
A|-2-4-4444-etc----420------0-x32-----4-x8--4-x8--4-x8-4444--6666---2------|
E|--------------------4----------------------------------------------------|
 PM   .........           Pm........


e|-------------------------------------------------------------------------|
B|-------------------------------------------------------------------------|
G|-------------------------------------------------------------------------|
D|--7777-------------------------------------------------------------------|
A|--5555--2222-3333--------------------------------------------------------|
E|-------------------------------------------------------------------------|


Chorus Part1
e|-------------------------------------------------------------------------|
B|-------------------------------------------------------------------------|
G|-------------------------------------------------------------------------|
D|--9------4------5------7-----8------9------4------5------7777--44--------|
A|--7-x8---2-x8---3-x8---5-x4--6-x4---7-x8---2-x8---3-x8---5555--22--------|
E|--0---------------------------------0------------------------------------|

Chorus Part2

e|-------------------------------------------------------------------------|
B|-------------------------------------------------------------------------|
G|-------------------------------------------------------------------------|
D|----------6-------4-----------------------6-------4----------------------|
A|--7-------4-x8----2-x8----6-------7-------4-x8----2-x8----6--------------|
E|--5-x8--------------------4-x8----5-x8--------------------4-x8-----------|


[ Tab from: http://www.guitartabs.cc/tabs/i/inme/safe_in_a_room_tab.html ]
e|-------------------------------------------------------------------------|
B|-------------------------------------------------------------------------|
G|-------------------------------------------------------------------------|
D|--h----------h-----------------------------------------------------------|
A|-2-4444444--2-4444444---4-x8---444422222---h-----------------------------|
E|------------------------------------------4-5555555--5-x8--5-x8--5-x8----|



e|-------------------------------------------------------------------------|
B|-------------------------------------------------------------------------|
G|-------------------------------------------------------------------------|
D|--h----------h--------------------------------------7777--44-------------|
A|-2-4444444--2-4444444---4-x8---44446666--2~---------5555--22-------------|
E|-------------------------------------------------------------------------|


Chorus Part3
e|-------------------------------------------------------------------------|
B|-------------------------------------------------------------------------|
G|-------------------------------------------------------------------------|
D|----------6-------4-----------------------6-------4--------------7-------|
A|--7-------4-x8----2-x8----6-------7-------4-x8----2-x8----6------5-x8----|
E|--5-x8--------------------4-x8----5-x8--------------------4-x8-----------|



e|-------------------------------------------------------------------------|
B|-------------------------------------------------------------------------|
G|-------------------------------------------------------------------------|
D|-2-------4-----------------------6-------4-------------------------------|
A|-4-x8----2-x8----6-------7-------4-x8----2-x8----66666-------------------|
E|-----------------4-x8----5-x8--------------------44444-------------------|



Mid-Section
e|-------7------------------7-------------------0-----------------0--------|
B|-----7---7--------------7---7---------------0---0-------------0---0------|
G|---9-------9---9------9-------9---9-------2-------2---2-----2-------2---2|
D|-9-----------9------9-----------9-------2-----------2-----2-----------2--|
A|-------------------------------------------------------------------------|
E|-------------------------------------------------------------------------|


                                              dddduuudud
e|----------0------------------0-------------------------------------------|
B|--------4---4--------------4---4-----------------------------------------|
G|------6-------6---6------6-------6---6------4----------------------------|
D|----6-----------6------6-----------6--------4-------------7777-44--------|
A|--------------------------------------------2-------------5555-22--------|
E|-------------------------------------------------------------------------|


Ending                      h  p
e|------11----12--11------14-16-14-----------------------------------------|
B|---------12--------12----------------------------------------------------|
G|-------------------------------------------------------------------------|
D|-------------------------------------------------------------------------|
A|-------------------------------------------------------------------------|
E|-------------------------------------------------------------------------|


Song Layout:

Intro
Verse
Chorus Part1
Chorus Part2
Chorus Part3
Intro
Mid-Section (With ending Section in background)
Chorus Part3
Intro
Ending



| /  slide up
| \  slide down
| h  hammer-on
| p  pull-off
| ~  vibrato
| *  harmonic
| d  down stroke
| u  up stroke
Comments