Inme - Neptune Chords & Tabs

 

Neptune Chords & Tabs

Inme Chords & Tabs

Version: 5 Type: Tab 0 ratings
1 star 2 stars 3 stars 4 stars 5 stars
comments

Neptune Tab

Artist: Inme
Album: Overgrown Eden
Track: Neptune

Here is the tab for Neptune taken from Inme's amazing debut album. The timing and 
is clear if you listen to the cd!!!

Intro rhythm:

E --------------------------------------------|
B --------------------------------------------|
G ------5p4-4-2-2h4p2-------------------------|
D ----2----------------------5------7b--------| x5
A --0----------------------3------5-----------|
D -----------------------3------5-------------|


Intro lead: (come in at 0:04)

E ----------------------------------------------------------|
B ----------------------------------------------------------|
G --5--4--2---5-4-7-4h5p4-2~------0---2b---5-4-7-4h5p4------|
D ----------------------------3-2---2-----------------------|
A ----------------------------------------------------------|
D ----------------------------------------------------------|


Intro pt2:

E --------------------------------------------|
B --------------------------------------------|
G ------5p4-4-2-2h4p2-------------------------|
D ----2----------------------5------7b--------| x2
A --0----------------------3------5-----------|
D -----------------------3------5-------------|

E --------------------------------------------|
B --------------------------------------------|
G ------5p4-4-2-2h4p2--------5------7b--------|
D ----2---------------------------------------|
A --0----------------------3------5-----------|
D -----------------------3------5-------------|

E --------------------------------------------|
B --------------------------------------------|
G ------5p4-4-2-2h4p2-------------------------|
D ----2----------------------5------7b--------|
A --0----------------------3------5-----------|
D -----------------------3------5-------------|

[ Tab from: http://www.guitartabs.cc/tabs/i/inme/neptune_tab_ver_5.html ]
Verse 1: (mainly bass)

E --20-20-20-20-20-20-20-20-20-20-20-20--------------------|
B ---------------------------------------------------------|
G ---------------------------------------------------------|
D ------------------------------------------3-3--5---------|
A ------------------------------------------3-3--5-slide---|
D ------------------------------------------3-3--5---------|


Chorus:

E ------------------------------------------|
B ------------------------------------------|
G --7-7-7-7-7-6-6-6-------------------------|
D --7-7-7-7-7-6-6-6--8-8-8-7-7-7------------|
A --5-5-5-5-5-4-4-4--8-8-8-7-7-7------------|
D -------------------8-8-8-7-7-7------------|

E ------------------------------------------|
B ------------------------------------------|
G --7-7-7-7-7-6-6-6-------------------------|
D --7-7-7-7-7-6-6-6--8-8-8-7-7-8p7----------|
A --5-5-5-5-5-4-4-4--8-8-8-7-7-8p7----------|
D -------------------8-8-8-7-7-8p7----------|


Verse 2: (Verse 1 is played on lead still)

E -------------------------------|
B -------------------------------|
G --2~~----2~~----2~~----2~~-----|
D --2~~----2~~----2~~----2~~-----|
A --0~~----0~~----0~~----0~~-----|
D -------------------------------|


Bridge:

E ------------------------------------------|
B ------------------------------------------|
G ---------7-7-7-7-7------------------------|
D --9-9-9-------------5-5-5-7-7-7-----------|
A --9-9-9-------------5-5-5-7-7-7-----------|
D --9-9-9-------------5-5-5-7-7-7-----------|


Outro

E ------------------------------------------|
B ------------------------------------------|
G ---------7-7-7-7-7------------------------|
D --9-9-9-------------3-3--3-3-x-x-5-7------|
A --9-9-9-------------3-3--3-3-x-x-5-7------|
D --9-9-9-------------3-3--3-3-x-x-5-7------|


Tabbed by Pete Earnshaw!
Comments