Inme - Neptune Chords & Tabs

 

Neptune Chords & Tabs

Inme Chords & Tabs

Version: 2 Type: Tab 1 rating
1 star 2 stars 3 stars 4 stars 5 stars
comments

Neptune Tab

   
Neptune by InMe
tabbed by Dave Adams - davester_adams@hotmail.com
Probably the best song off the brilliant debut album overgrown eden,
which if you dont have then go and buy now. I've tabbed the main riff
of the song and put in the power chords used through the rest song its
not 100% there but pretty much all you need to play along so enjoy! if
you have any additions, alterations or questions email me.

play this 4 times with some crazy effect:

e --------------------------------------------------------------
B --------------------------------------------------------------
G -------5p4-4-4------------------------------------------------
D ------------------7-7--7h9p7-5-------------5----------7b------
A ----7----------------------------------3-----------5----------
E --5--------------------------------1-----------3--------------
 
then repeat another 4 times with more distorted effect with the 
following slight variation on the 3rd time:

e --------------------------------------------------------------
B --------------------------------------------------------------
G -------5p4-4-4------------------------------5----------7b-----
D ------------------7-7--7h9p7-5--------------------------------
A ----7----------------------------------3-----------5----------
E --5--------------------------------1-----------3--------------

Bass plays through verses, guitar comes in on the last line
[ Tab from: http://www.guitartabs.cc/tabs/i/inme/neptune_tab_ver_2.html ]
Verse 1:

I wish I had a different star
I wish I had a different silhouette
You decrease me, you seclude me, aggravate me and you made me,
             F5     G5
What I am today

Chorus:

D5             Bb5      C5
This is the way forward
 D5             Bb5      C5
You are the way backward
D5             Bb5      C5
I chose the way forward
D5                                 Bb5  C5
      And left you all behind

main riff then verse 2:

I wish we could communicate
Despite the fact you’d hate me anyway
You seduce me, you abuse me, you frustrate me and amaze me
              F5              G5
What is wrong with me

CHORUS

Middle 8:

B5                   G5   A5             B5                               G5   A5
It’s bad enough that you could say that, it’s bad enough
B5                   G5   A5             B5                               G5   A5
It’s bad enough that you could say that, it’s bad enough

Verse 3: (Guitar plays main riff through this verse)

I wish that I could trade these eyes
Because now I only despise my own lies
You sedate me, elevate me, incarcerate me and you hate me
Neptune in the sea

CHORUS

MIDDLE 8
Comments