Inme - Neptune Chords & Tabs

 

Neptune Chords & Tabs

Inme Chords & Tabs

Version: 1 Type: Bass Tab 0 ratings
1 star 2 stars 3 stars 4 stars 5 stars
comments

Neptune Bass Tab

   
----------------------------------------------------------------------------
			     Neptune - Inme
----------------------------------------------------------------------------

Tabbed By: Twig (courtesy of julie)


h = hold note
b = bend note

Amazing song, im fairly sure this is right, but the bass in the verse is covered by 
and drums so just impro with octaves on the basic notes.

Guitar plays intro 4 times
Bass comes in at 0:19

[Intro and interlude bits]
G-----5--4--2h------0-0-----2b-|
D---2--------------------------|
A-0-----0--0------3-------2----|   Play twice
E---------------1-------3------|

G-----5--4--2h------5-5-----7b-|
D---2--------------------------|  Then this once on the third time, then
A-0-----0--0------3-------2----|  revert back to the other riff for last time
E---------------1-------3------|


The verses are a little hard to work out cos Joe plays some crazy stuff behind the 
that i think has octaves in it, this is the basic beat
[Verses]
G---------------------------------|
D---------------------------------|
A---------------------------------|  Play 4 times
E-5-5-5-5-5-5-5-5-1-1-1-1-3-3-3-3-|
[ Tab from: http://www.guitartabs.cc/tabs/i/inme/neptune_btab.html ]
[Chorus] - similar to the verses, but easier to play
G---------------------------------|
D---------------------------------|
A-5-5-5-5-5-5-5-5-1-1-1-1-3-3-3-3-|    Play first and 3rd times
E---------------------------------|

G---------------------------------|
D---------------------------------|
A-5-5-5-5-5-5-5-5-1-1-1-1---------|    Play 2nd and last times
E-------------------------5-5-5-5-|

[Interlude] (at 2:18)
G--------------------------------|   Same structure as chorus
D--------------------------------|  (Play first and 3rd times)
A-3-3-3-3-3-3-3-3----------------|
E----------------4-4-4-4-6-6-6-6-|

G--------------------------------|
D--------------------------------|
A-3-3-3-3-3-3-3-3----------------|  (Play 2nd and last times)
E----------------4-4-4-4-3-3-3-3-|


[What to play + when]
Up to 0:19, twiddle thumbs
0:19 to 0:38, into
0:38 to 0:59, verse
0:59 to 1:08, chorus
1:08 to 1:39, intro as an interlude
1:39 to 1:58, verse
1:58 to 2:18, chorus
2:18 to 2:29, interlude
2:29 to 2:55, intro as an interlude
2:55 to 2:58, pause while dave shows off
2:58 to 3:18, verse
3:18 to 3:39, interlude
3:39 to 3:48, hold open on A

Really fun to play, especially the intro. For corrections or if you work out what joe 
in the verses, email arsebiscuit88@hotmail.com
Comments