Inme - Mosaic Chords & Tabs

 

Mosaic Chords & Tabs

Inme Chords & Tabs

Version: 1 Type: Bass Tab 0 ratings
1 star 2 stars 3 stars 4 stars 5 stars
comments

Mosaic Bass Tab

   
-------------------------------------------------------------------------------
			     SONG NAME - Band Name
-------------------------------------------------------------------------------

Tabbed By : David Souter 
 Great song by a great band. Its difficult in plces, and goes quite quickly.

Tuning:Normal

Intro (listen for when Bass Starts)
G|------------------|
D|------------------|
A|---00-3-0-1-00-1-3|x4
E|------------------|

Intro Continued
G|-------------------------------------------
D|-------------------------------------------|
A|--55-5-11-1-00-3-0-1-00-1-3-00-3-0-1-00-1-3|
E|-------------------------------------------|
[ Tab from: http://www.guitartabs.cc/tabs/i/inme/mosaic_btab.html ]
Verse
G|------------------------------------------------|
D|-------7---6---5-------7---6---5-------7---8---9|
A|------------------------------------------------|x2
E|--55-5---4---3----55-5---4---3----55-5---4---7--|

Chorus
G|-------------------------------------------|
D|-------------------------------------------|
A|--55-5-11-1-00-3-0-1-00-1-3-00-3-0-1-00-1-3|
E|-------------------------------------------|

Verse

Chorus

Bridge
G|-------------------------------------|
D|-------------------------------------|
A|-------------------------------------|x8
E|---4-5-----4-5-----4-5-----4-5--5-5-5|


G|------------------|
D|------------------|
A|---00-3-0-1-00-1-3|x5
E|------------------|
Chorus Un Till The End
This is 99 percent accurate, i may have made a couple of mistakes, but its almost perfect. rate it plz

| /  slide up
| \  slide down
| h  hammer-on
| p  pull-off
| ~  vibrato
| +  harmonic
| x  Mute note
===============================================================================
Comments