Inme - Firefly Chords & Tabs

 

Firefly Chords & Tabs

Inme Chords & Tabs

Version: 5 Type: Tab 0 ratings
1 star 2 stars 3 stars 4 stars 5 stars
comments

Firefly Tab

   
This is an awsome song and i hope you have fun playing it!!
It is in standard tuning(ebgdae)

Intro (clean)
e-0-*7--------0-0-0-*7-------0-0
b-0---*7------0-0-0---*7-----0-0
g-2-----*7----2---2-----*7---2--   (x2)
d-3-------*7--2---3-------*7-2--
a-3-----------0---3----------0--
e-------------------------------

Bridge (missing you......)(distorted and loads of reverb)
e-------------------------------------
b-------------------------------------
g-------------------------------------
d-4--[55555555888888889999999977777777
a-2--[33333333666666667777777755555555
e-------------------------------------
     [all chords in [] are palm muted lightly]

e----------------------------------
b----------------------------------
g----------------------------------
d-5555555588888888999999999999]-7-7
a-3333333366666666777777777777]-5-5
e----------------------------------
[ Tab from: http://www.guitartabs.cc/tabs/i/inme/firefly_tab_ver_5.html ]
e-----------------------------------------------------------------
b-----------------------------------------------------------------
g-----------------------------------------------------------------
d-[555555558888888899999999777777775555555599999999]-9999999999999
a-[333333336666666677777777555555553333333377777777]--------------
e-----------------------------------------------------------------

Chorous (distorted)

e-0-0--------------
d-0-0--------------
g-1-1---4-4-2-2-2-2
d-2-2---4-4-2-2-2-2   (x4) 
a-2-2---2-2-0-0-0-0
e-0-0--------------

Extended chorous

e------
d------
g------
b-5-8-9  (x2) played in the second chorous
a-5-6-7
e-3-6-7

Mid-8

e------------------
d------------------
g-----2------------
b-2---2---2---5---2  (x2)
a-3---0---3---5---2
e-1-------1---3---0

Chourous+extended chourous

Interlude

e----------------------------
d-----7----------------------
g---9----9-----7---------6---
b-9----------9----9----7----7 (x3)
a----------9---------7-------
e----------------------------

e----------------------------------
d------7---------------------------
g---9----9------7------------------
b-9-----------9----9---------------
a-----------9---------7-7-7-7-7-7-7
e---------------------5-5-5-5-5-5-5

chorous + extended chorous

Enjoy!! i fink its pretty much rite!
Comments