Inme - Firefly Chords & Tabs

 

Firefly Chords & Tabs

Inme Chords & Tabs

Version: 4 Type: Tab 1 rating
1 star 2 stars 3 stars 4 stars 5 stars
comments

Firefly Tab

   
Artist    : Inme
Track     : Firefly
Tabbed by : Kris Bain

Tuning    : Standard (EADGBe)

Very good song released by the Essex trio. The song is straight forward you 
just have to have the right effects. The tab is layed out as the song would
be played. So you can follow this tab right the way through the song without
getting lost.

*Introduction*

Guitar 1: Dave Mcpherson - Clean

Sound: Clean/Reverb

                h h h h                                       h  h  h  h            
E||--0----------5---------|--0----------0-------|--0----------12------------|
B||--0------------5-------|--0--------------0---|--0-------------12---------|
G||--2--------------5-----|--0------------------|--2----------------12------|
D||--3----------------5---|--2------------------|--3-------------------12---|
A||-----------------------|---------------------|---------------------------|
E||-----------------------|---------------------|---------------------------|


                                   h h h h                              
--0--------------0---|--0----------5---------|--0----------0-------|
--0----------0-------|--0------------5-------|--0--------------0---|
--0------------------|--2--------------5-----|--0------------------|
--2------------------|--3----------------5---|--2------------------|
---------------------|-----------------------|---------------------|
---------------------|-----------------------|---------------------|


              h  h  h  h                                               
--0----------12------------|--0----------------|
--0-------------12---------|--0----------------|
--2----------------12------|--0----------------|
--3-------------------12---|--2----------------|
---------------------------|-------------------|
---------------------------|-------------------|

*Verse 1*

:: No Guitar ::

*Pre-Chorus*

Sound: Distortion w/Flange


                     Palm mute  .  .  .  .  .
|-------------------|--------------------------|
|-------------------|--------------------------|
|-------------------|--5--5--5--5--5--5--5--5--|
|--------------9----|--5--5--5--5--5--5--5--5--|
|--------------9----|--3--3--3--3--3--3--3--3--|
|--------------7----|--------------------------|


  .  .  .  .  .  .  .  .     .  .  .  .  .  .  .  .
--------------------------|--------------------------|
--------------------------|--------------------------|
--8--8--8--8--8--8--8--8--|--9--9--9--9--9--9--9--9--|
--8--8--8--8--8--8--8--8--|--9--9--9--9--9--9--9--9--|
--6--6--6--6--6--6--6--6--|--7--7--7--7--7--7--7--7--|
--------------------------|--------------------------|


  .  .  .  .  .  .  .  .     .  .  .  .  .  .  .  .
--------------------------|--------------------------|
--------------------------|--------------------------|
--------------------------|--5--5--5--5--5--5--5--5--|
--9--9--9--9--9--9--9--9--|--5--5--5--5--5--5--5--5--|
--9--9--9--9--9--9--9--9--|--3--3--3--3--3--3--3--3--|
--7--7--7--7--7--7--7--7--|--------------------------|


  .  .  .  .  .  .  .  .     .  .  .  .  .  .  .  .     .  .  .  .
--------------------------|--------------------------|------------------------|
--------------------------|--------------------------|------------------------|
--8--8--8--8--8--8--8--8--|--9--9--9--9--9--9--9--9--|--9--9--9--9------------|
--8--8--8--8--8--8--8--8--|--9--9--9--9--9--9--9--9--|--9--9--9--9--9----9----|
--6--6--6--6--6--6--6--6--|--7--7--7--7--7--7--7--7--|--7--7--7--7--9----9----|
--------------------------|--------------------------|--------------7----7----|


  .  .  .  .  .  .  .  .     .  .  .  .  .  .  .  .
--------------------------|--------------------------|
--------------------------|--------------------------|
--5--5--5--5--5--5--5--5--|--8--8--8--8--8--8--8--8--|
--5--5--5--5--5--5--5--5--|--8--8--8--8--8--8--8--8--|
--3--3--3--3--3--3--3--3--|--6--6--6--6--6--6--6--6--|
--------------------------|--------------------------|


  .  .  .  .  .  .  .  .     .  .  .  .  .  .  .  .
--------------------------|--------------------------|
--------------------------|--------------------------|
--9--9--9--9--9--9--9--9--|--------------------------|
--9--9--9--9--9--9--9--9--|--9--9--9--9--9--9--9--9--|
--7--7--7--7--7--7--7--7--|--9--9--9--9--9--9--9--9--|
--------------------------|--7--7--7--7--7--7--7--7--|


  .  .  .  .  .  .  .  .     .  .  .  .  .  .  .  .
--------------------------|--------------------------|
--------------------------|--------------------------|
--5--5--5--5--5--5--5--5--|--8--8--8--8--8--8--8--8--|
--5--5--5--5--5--5--5--5--|--8--8--8--8--8--8--8--8--|
--3--3--3--3--3--3--3--3--|--6--6--6--6--6--6--6--6--|
--------------------------|--------------------------|


                                                              
------------------------------|------------------------------|
------------------------------|------------------------------|
--9h-10h-9h-10h-9h-10h-9h-10--|--9h-10h-9h-10h-9h-10h-9h-10--|
------------------------------|------------------------------|
------------------------------|------------------------------|
------------------------------|------------------------------|

*Chorus*

Sound: Distortion


----------------------|------------------------|----------------------|
----------------------|------------------------|----------------------|
----------------------|-----4--4----4----4--4--|----------------------|
--2--------2----2--2--|--2--4--4----4----4--4--|--7--------7----7--7--|
--2--------2----2--2--|--2--2--2----2----2--2--|--7--------7----7--7--|
--0--------0----0--0--|--0---------------------|--5--------5----5--5--|


                                                                        
-----------------------|----------------------|------------------------|
-----------------------|----------------------|------------------------|
-----------------------|----------------------|-----4--4----4----4--4--|
------7----7--7--7--7--|--2--------2----2--2--|--2--4--4----4----4--4--|
------7----7--7--7--7--|--2--------2----2--2--|--2--2--2----2----2--2--|
------5----5--5--5--5--|--0--------0----0--0--|--0---------------------|


                                                                      
----------------------|-----------------------|----------------------|
----------------------|-----------------------|----------------------|
----------------------|-----------------------|----------------------|
--7--------7----7--7--|------7----7--7--7--7--|--2--------2----2--2--|
--7--------7----7--7--|------7----7--7--7--7--|--2--------2----2--2--|
--5--------5----5--5--|------5----5--5--5--5--|--0--------0----0--0--|


                                                                        
------------------------|----------------------|-----------------------|
------------------------|----------------------|-----------------------|
-----4--4----4----4--4--|----------------------|-----------------------|
--2--4--4----4----4--4--|--7--------7----7--7--|------7----7--7--7--7--|
--2--2--2----2----2--2--|--7--------7----7--7--|------7----7--7--7--7--|
--0---------------------|--5--------5----5--5--|------5----5--5--5--5--|


                                                                       
----------------------|------------------------|----------------------|
----------------------|------------------------|----------------------|
----------------------|-----4--4----4----4--4--|----------------------|
--2--------2----2--2--|--2--4--4----4----4--4--|--7--------7----7--7--|
--2--------2----2--2--|--2--2--2----2----2--2--|--7--------7----7--7--|
--0--------0----0--0--|--0---------------------|--5--------5----5--5--|


                       
-----------------------|
-----------------------|
-----------------------|
------7----7--7--7--7--|
------7----7--7--7--7--|
------5----5--5--5--5--|

*Verse 2*

(Follows bass notes closely)

Sound: Distortion

|-------------------|-------------------|
|-------------------|-------------------|
|-------------------|-------------------|
|-------------------|-------------------|
|-------------------|-------------------|
|--1----------------|--5----------------|


                                                             
--------------------|-------------------|-------------------|
--------------------|-------------------|-------------------|
--------------------|-------------------|-------------------|
--------------------|-------------------|-------------------|
--------------------|-------------------|-------------------|
--1------------3----|--0----------------|--1----------------|


                                                              
-------------------|--------------------|--------------------|
-------------------|--------------------|--------------------|
-------------------|--------------------|--------------------|
-------------------|--------------------|---------------9----|
-------------------|--------------------|---------------9----|
--5----------------|--1------------3----|--0------------7----|

*Pre-Chorus*

Sound: Distortion w/Flange

                     Palm mute  .  .  .  .  .
|-------------------|--------------------------|
|-------------------|--5--5--5--5--5--5--5--5--|
|--------------9----|--5--5--5--5--5--5--5--5--|
|--------------9----|--3--3--3--3--3--3--3--3--|
|--------------7----|--------------------------|


  .  .  .  .  .  .  .  .     .  .  .  .  .  .  .  .
--------------------------|--------------------------|
--------------------------|--------------------------|
--8--8--8--8--8--8--8--8--|--9--9--9--9--9--9--9--9--|
--8--8--8--8--8--8--8--8--|--9--9--9--9--9--9--9--9--|
--6--6--6--6--6--6--6--6--|--7--7--7--7--7--7--7--7--|
--------------------------|--------------------------|


  .  .  .  .  .  .  .  .     .  .  .  .  .  .  .  .
--------------------------|--------------------------|
--------------------------|--------------------------|
--------------------------|--5--5--5--5--5--5--5--5--|
--9--9--9--9--9--9--9--9--|--5--5--5--5--5--5--5--5--|
--9--9--9--9--9--9--9--9--|--3--3--3--3--3--3--3--3--|
--7--7--7--7--7--7--7--7--|--------------------------|


  .  .  .  .  .  .  .  .     .  .  .  .  .  .  .  .     .  .  .  .
--------------------------|--------------------------|------------------------|
--------------------------|--------------------------|------------------------|
--8--8--8--8--8--8--8--8--|--9--9--9--9--9--9--9--9--|--9--9--9--9------------|
--8--8--8--8--8--8--8--8--|--9--9--9--9--9--9--9--9--|--9--9--9--9--9----9----|
--6--6--6--6--6--6--6--6--|--7--7--7--7--7--7--7--7--|--7--7--7--7--9----9----|
--------------------------|--------------------------|--------------7----7----|

[ Tab from: http://www.guitartabs.cc/tabs/i/inme/firefly_tab_ver_4.html ]
  .  .  .  .  .  .  .  .     .  .  .  .  .  .  .  .
--------------------------|--------------------------|
--------------------------|--------------------------|
--5--5--5--5--5--5--5--5--|--8--8--8--8--8--8--8--8--|
--5--5--5--5--5--5--5--5--|--8--8--8--8--8--8--8--8--|
--3--3--3--3--3--3--3--3--|--6--6--6--6--6--6--6--6--|
--------------------------|--------------------------|


  .  .  .  .  .  .  .  .     .  .  .  .  .  .  .  .
--------------------------|--------------------------|
--------------------------|--------------------------|
--9--9--9--9--9--9--9--9--|--------------------------|
--9--9--9--9--9--9--9--9--|--9--9--9--9--9--9--9--9--|
--7--7--7--7--7--7--7--7--|--9--9--9--9--9--9--9--9--|
--------------------------|--7--7--7--7--7--7--7--7--|


  .  .  .  .  .  .  .  .     .  .  .  .  .  .  .  .
--------------------------|--------------------------|
--------------------------|--------------------------|
--5--5--5--5--5--5--5--5--|--8--8--8--8--8--8--8--8--|
--5--5--5--5--5--5--5--5--|--8--8--8--8--8--8--8--8--|
--3--3--3--3--3--3--3--3--|--6--6--6--6--6--6--6--6--|
--------------------------|--------------------------|


                                                              
------------------------------|------------------------------|
------------------------------|------------------------------|
--9h-10h-9h-10h-9h-10h-9h-10--|--9h-10h-9h-10h-9h-10h-9h-10--|
------------------------------|------------------------------|
------------------------------|------------------------------|
------------------------------|------------------------------|

*Chorus*

Sound: Distortion

----------------------|------------------------|----------------------|
----------------------|------------------------|----------------------|
----------------------|-----4--4----4----4--4--|----------------------|
--2--------2----2--2--|--2--4--4----4----4--4--|--7--------7----7--7--|
--2--------2----2--2--|--2--2--2----2----2--2--|--7--------7----7--7--|
--0--------0----0--0--|--0---------------------|--5--------5----5--5--|


                                                                        
-----------------------|----------------------|------------------------|
-----------------------|----------------------|------------------------|
-----------------------|----------------------|-----4--4----4----4--4--|
------7----7--7--7--7--|--2--------2----2--2--|--2--4--4----4----4--4--|
------7----7--7--7--7--|--2--------2----2--2--|--2--2--2----2----2--2--|
------5----5--5--5--5--|--0--------0----0--0--|--0---------------------|


                                                                      
----------------------|-----------------------|----------------------|
----------------------|-----------------------|----------------------|
----------------------|-----------------------|----------------------|
--7--------7----7--7--|------7----7--7--7--7--|--2--------2----2--2--|
--7--------7----7--7--|------7----7--7--7--7--|--2--------2----2--2--|
--5--------5----5--5--|------5----5--5--5--5--|--0--------0----0--0--|


                                                                        
------------------------|----------------------|-----------------------|
------------------------|----------------------|-----------------------|
-----4--4----4----4--4--|----------------------|-----------------------|
--2--4--4----4----4--4--|--7--------7----7--7--|------7----7--7--7--7--|
--2--2--2----2----2--2--|--7--------7----7--7--|------7----7--7--7--7--|
--0---------------------|--5--------5----5--5--|------5----5--5--5--5--|


                                                                       
----------------------|------------------------|----------------------|
----------------------|------------------------|----------------------|
----------------------|-----4--4----4----4--4--|----------------------|
--2--------2----2--2--|--2--4--4----4----4--4--|--7--------7----7--7--|
--2--------2----2--2--|--2--2--2----2----2--2--|--7--------7----7--7--|
--0--------0----0--0--|--0---------------------|--5--------5----5--5--|


                       
-----------------------|
-----------------------|
-----------------------|
------7----7--7--7--7--|
------7----7--7--7--7--|
------5----5--5--5--5--|


*Chorus Part 2*

|----------------------|
|----------------------|
|--5--------5----5--5--|
|--5--------5----5--5--|
|--3--------3----3--3--|
|----------------------|


                                                                           
------------------------|------------------------|------------------------|
------------------------|------------------------|------------------------|
--5/-8--8----8----8--8--|--8/-9--9----9----9--9--|--9\-4--4----4----4--4--|
--5/-8--8----8----8--8--|--8/-9--9----9----9--9--|--9\-4--4----4----4--4--|
--3/-6--6----6----6--6--|--6/-7--7----7----7--7--|--7\-2--2----2----2--2--|
------------------------|------------------------|------------------------|


                                                                         
----------------------|------------------------|------------------------|
----------------------|------------------------|------------------------|
--5--------5----5--5--|--5/-8--8----8----8--8--|--8/-9--9----9----9--9--|
--5--------5----5--5--|--5/-8--8----8----8--8--|--8/-9--9----9----9--9--|
--3--------3----3--3--|--3/-6--6----6----6--6--|--6/-7--7----7----7--7--|
----------------------|------------------------|------------------------|


                                                                         
------------------------|----------------------|------------------------|
------------------------|----------------------|------------------------|
--9--9--9----9----9--9--|--5--------5----5--5--|--5/-8--8----8----8--8--|
--9--9--9----9----9--9--|--5--------5----5--5--|--5/-8--8----8----8--8--|
--7--7--7----7----7--7--|--3--------3----3--3--|--3/-6--6----6----6--6--|
------------------------|----------------------|------------------------|


                                                                         
------------------------|------------------------|----------------------|
------------------------|------------------------|----------------------|
--8/-9--9----9----9--9--|--9\-4--4----4----4--4--|--5--------5----5--5--|
--8/-9--9----9----9--9--|--9\-4--4----4----4--4--|--5--------5----5--5--|
--6/-7--7----7----7--7--|--7\-2--2----2----2--2--|--3--------3----3--3--|
------------------------|------------------------|----------------------|


                                                                                
------------------------|------------------------|------------------------|
------------------------|------------------------|------------------------|
--5/-8--8----8----8--8--|--8/-9--9----9----9--9--|--9--9--9----9----9--9--|
--5/-8--8----8----8--8--|--8/-9--9----9----9--9--|--9--9--9----9----9--9--|
--3/-6--6----6----6--6--|--6/-7--7----7----7--7--|--7--7--7----7----7--7--|
------------------------|------------------------|------------------------|

*Chorus Part 3 [clean interlude]*

Sound: Clean/reverb

Let notes ring

--------------------------|--------------------------|
--------7-----------------|--------------------------|
-----9-----9--------8-----|--------6-----------6-----|
--9--------------9-----9--|-----7-----7-----7-----7--|
--------------9-----------|--7-----------7-----------|
--------------------------|--------------------------|


                                                      
--------------------------|--------------------------|
--------7-----------------|--------------------------|
-----9-----9--------8-----|--------6-----------6-----|
--9--------------9-----9--|-----7-----7-----7-----7--|
--------------9-----------|--7-----------7-----------|
--------------------------|--------------------------|


                                                      
--------------------------|--------------------------|
--------7-----------------|--------------------------|
-----9-----9--------8-----|--------6-----------6-----|
--9--------------9-----9--|-----7-----7-----7-----7--|
--------------9-----------|--7-----------7-----------|
--------------------------|--------------------------|


                            Palm mute w/distortion                                                   
--------------------------|-------------------------|
--------7-----------------|-------------------------|
-----9-----9--------8-----|-------------------------|
--9--------------9-----9--|--7--7--7--7--7--7--7----|
--------------9-----------|--7--7--7--7--7--7--7----|
--------------------------|--5--5--5--5--5--5--5----|

*Ending*

|----------------------|
|----------------------|
|----------------------|
|--2--------2----2--2--|
|--2--------2----2--2--|
|--0--------0----0--0--|



------------------------|----------------------|-----------------------|
------------------------|----------------------|-----------------------|
-----4--4----4----4--4--|----------------------|-----------------------|
--2--4--4----4----4--4--|--7--------7----7--7--|------7----7--7--7--7--|
--2--2--2----2----2--2--|--7--------7----7--7--|------7----7--7--7--7--|
--0---------------------|--5--------5----5--5--|------5----5--5--5--5--|


                                                                       
----------------------|------------------------|----------------------|
----------------------|------------------------|----------------------|
----------------------|-----4--4----4----4--4--|----------------------|
--2--------2----2--2--|--2--4--4----4----4--4--|--7--------7----7--7--|
--2--------2----2--2--|--2--2--2----2----2--2--|--7--------7----7--7--|
--0--------0----0--0--|--0---------------------|--5--------5----5--5--|


                                                                        
-----------------------|----------------------|------------------------|
-----------------------|----------------------|------------------------|
-----------------------|----------------------|-----4--4----4----4--4--|
------7----7--7--7--7--|--2--------2----2--2--|--2--4--4----4----4--4--|
------7----7--7--7--7--|--2--------2----2--2--|--2--2--2----2----2--2--|
------5----5--5--5--5--|--0--------0----0--0--|--0---------------------|


                                                                      
----------------------|-----------------------|----------------------|
----------------------|-----------------------|----------------------|
----------------------|-----------------------|----------------------|
--7--------7----7--7--|------7----7--7--7--7--|--2--------2----2--2--|
--7--------7----7--7--|------7----7--7--7--7--|--2--------2----2--2--|
--5--------5----5--5--|------5----5--5--5--5--|--0--------0----0--0--|


                                                                        
------------------------|----------------------|-----------------------|
------------------------|----------------------|-----------------------|
-----4--4----4----4--4--|----------------------|-----------------------|
--2--4--4----4----4--4--|--7--------7----7--7--|------7----7--7--7--7--|
--2--2--2----2----2--2--|--7--------7----7--7--|------7----7--7--7--7--|
--0---------------------|--5--------5----5--5--|------5----5--5--5--5--|


Let Ring
                                                                              
-------------------|
-------------------|
-------------------|
--2----------------|
--2----------------|
--0----------------|

Questions/Comments: E-mail me - k_r_i_5@hotmail.com
Comments