Inme - Firefly Chords & Tabs

 

Firefly Chords & Tabs

Inme Chords & Tabs

Version: 1 Type: Tab 0 ratings
1 star 2 stars 3 stars 4 stars 5 stars
comments

Firefly Tab

Firefly


|----*7---------------------*12------------------ 
|-------*7---------------------*12--------------- 
|----------*7--------9------------*12----------9- 
|-9-----------*7--9----9--9----------*12--7--9--- 
|-7---------------7-------7---------------5------ 
|------------------------------------------------

|-------------------------------------------- 
|-------------------------------------------- 
|-------------------------------------------- 
|-4-(4)-55555555-88888888-999999999-44444444- 
|-2-(2)-33333333-66666666-777777777-22222222- 
|-------------------------------------------- 


|-------------------------------------------- 
|-------------------------------------------- 
|-------------------------------------------- 
|-55555555-88888888-9999999999999999--------- 
|-33333333-66666666-7777777777777777--------- 
|-------------------------------------------- 


|-------------------------------------------- 
|-------------------------------------------- 
|-------------------------------------------- 
|(9/10-9/10-9/10-9/10-9/10-9/10-9/10-9/10)--- (x2)
|(7/8--7/8--7/8--7/8--7/8--7/8--7/8--7/8-)--- 
|-------------------------------------------- 

[ Tab from: http://www.guitartabs.cc/tabs/i/inme/firefly_tab.html ]
|----------------------------- 
|----------------------------- 
|--------------222222222222--- 
|-------444444-222222222222--- (x4) 
|-22222-222222---------------- 
|-22222----------------------- 


Verse 2: 

|------------------ 
|------------------ 
|------------------ 
|------------------ (x2) 
|-3--7--3--5--2---- 
|-3--7--3--5--2---- 

|-------------------------------------------- 
|-------------------------------------------- 
|-------------------------------------------- 
|-(44)-55555555-88888888-999999999-44444444—
|-(22)-33333333-66666666-777777777-22222222—
|-------------------------------------------- 

|-------------------------------------------- 
|-------------------------------------------- 
|-------------------------------------------- 
|-55555555-88888888-9999999999999999--------- (x2) 
|-33333333-66666666-7777777777777777---------
|-------------------------------------------- 

|---------------------------------------------------- 
|-----7---------------------------------------------- 
|---9---9------9--------9--------9------------------- 
|-9----------9---9----7---7----7---7---4-4-4-4-4-4-4- 
|----------9--------7--------7---------2-2-2-2-2-2-2- 
|---------------------------------------------------- 



Comments