Inme - Crushed Like Fruit Chords & Tabs

 

Crushed Like Fruit Chords & Tabs

Inme Chords & Tabs

Version: 3 Type: Tab 0 ratings
1 star 2 stars 3 stars 4 stars 5 stars
comments

Crushed Like Fruit Tab

Song: Crushed Like Fruit
Artist: InMe
Genre: Rock


Intro:

Repeat Twice:
e------------------------------------------------
b------------------------------------------------
g---3---2----2-3---5555---------------4-5555-3333
d-1---1------------------------------------------
a--------------------------6---4---5-------------
e------------------------3---3---3---------------


Repeat Twice:

e------------------------------------------------
b------------------------------------------------
g-3-3xx-2---3-3xx---2---2-3-5555-----------------
d-1-1xx-1---1-1xx---1----------------------------
a---------------------------------5-5xx-4---6-6xx
e---------------------------------3-3xx-3---3-3xx



e---------------
b---------------
g----4-5555-3333
d---------------
a-5-------------
e-3-------------

Verse:
[ Tab from: http://www.guitartabs.cc/tabs/i/inme/crushed_like_fruit_tab_ver_3.html ]
e---------------------------------------
b---------------------------------------
g-3xxx-----------3xxx-------------------
d-1xxx-----------1xxx-------------------
a---------5xxx---------5xxx-5xxx-5xxx--5
e---------3xxx---------3xxx-3xxx-3xxx--3

Pre Chorus:


e------------------------------------------------
b------------------------------------------------
g-----9--------5--------5-----------------9------
d---7--------4--------3----5--3---------7--------
a-7--------4--------3------------7-8--7----------
e------------------------------------------------



e---------------------------------
b---------------------------------
g-----5----5-x-x-x-x--xx-x--xx-x-5
d---4------3-x-x-x-x--xx-x--xx-x-3
a-4--------3-x-x-x-x--xx-x--xx-x-3
e---------------------------------

Chorus:


e--------------------------------
b-------------------------7-8-7--
g-555555555----------------------
d-555555555---555555555----------
a-777777777---555555555----------
e-------------333333333----------


Interlude:


e-------------------------------
b-------------------------------
g---3---2---2-333-5555----------
d-1---1-----------------5xxxxxxx
a-----------------------5xxxxxxx
e-----------------------3xxxxxxx
Comments