Inkubus Sukkubus - Sweet Morpheus Chords & Tabs

 

Sweet Morpheus Chords & Tabs

Inkubus Sukkubus Chords & Tabs

Version: 1 Type: Tab 0 ratings
1 star 2 stars 3 stars 4 stars 5 stars
comments

Sweet Morpheus Tab

   
This song is completely composed of acoutic guitar, vox, and organs......

chords: A  G  F
        0  3  0
        1  3  0
        2  0  0
        2  0  3
        0  2  3
        0  3  1
Thr progression for the ENTIRE song is A G F A

then the frist solo is as follows......

e:------------------------10----------------------------------------------|
B:-10---12-13-12----12-13----13--12-12-10--10---12-13-12------------------|
G:------------------------------------------------------------------------|
D:------------------------------------------------------------------------|
A:------------------------------------------------------------------------|
E:------------------------------------------------------------------------|
[ Tab from: http://www.guitartabs.cc/tabs/i/inkubus_sukkubus/sweet_morpheus_tab.html ]
e:-------10-12-s13-12---10-12-13-s15-13-12-12-10--------------------------|
B:-12-13-------------------------------------------13-13-12--10-12-13-----|
G:------------------------------------------------------------------------|
D:------------------------------------------------------------------------|
A:------------------------------------------------------------------------|
E:------------------------------------------------------------------------|

e:-10---------------------------------------------------------------------|
B:----13-12-12-10-10------------------------------------------------------|
G:------------------------------------------------------------------------|
D:------------------------------------------------------------------------|
A:------------------------------------------------------------------------|
E:------------------------------------------------------------------------|


that's it.....there is a little solo in the outro.....dont care enough to tab it 
correction's: vitilillniss@yahoo.com
Comments