Injected - Faithless Chords & Tabs

 

Faithless Chords & Tabs

Injected Chords & Tabs

Version: 1 Type: Tab 1 rating
1 star 2 stars 3 stars 4 stars 5 stars
comments

Faithless Tab

   
“Faithless” by Injected
Tab by Jay Bartholomew (jaybar36@hotmail.com)
Drop D tuning

Intro

Guitar 1
e|-----------------------------------------------------------|
B|-----------------------------------------------------------|
G|-----------------------------------------------------------|
D|-3-x--1-1-x-1-1-x--3-3-x-3-3-x-3-3-x—-E...-----------------|
A|-3-x--1-1-x-1-1-x--3-3-x-3-3-x-3-3-x—-T...-----------------|
E|-3-x--1-1-x-1-1-x--3-3-x-3-3-x-3-3-x—-C...-----------------|

Guitar 2
e|-----------------------------------------------------------|
B|------------------8---6-------8---6h8---8---6--------------|
G|-7777777777777777---7---5/7-----7-----7---7---5/7---5b6—7~-|
D|----------------------------8---------------------8--------|
A|-----------------------------------------------------------|
E|-----------------------------------------------------------|

Verse

Guitar 2
e|----------------------------------|
B|----------------------------------|
G|-7h8p7---5--------5/7-----7h8p7—5-|
D|----------------------------------|
A|----------------------------------|
E|----------------------------------|

Chorus

Guitar 1
Play steady power chords: Eb5 F5 (111xxx, 333xxx).  Like the intro, 
but with no muting rhythm.
[ Tab from: http://www.guitartabs.cc/tabs/i/injected/faithless_tab.html ]
Guitar 2 (switch notes every time Guitar 1 switches chords) 
   Eb5       F5        Eb5        F5
e|-6---------5------------------------R--|
B|---------------------8----------6---E--|
G|------------------------------------P--|
D|------------------------------------E--|
A|------------------------------------A--|
E|------------------------------------T—-|

Solo

Guitar 1
e|----------------------------------|
B|----------------------------------|
G|----------------------------------|
D|-1-1-x-1-1----------1-1-x-1-1-----|
A|-1-1-x-1-1----------1-1-x-1-1-----|
E|-1-1-x-1-1----------1-1-x-1-1-----|

Guitar 2
e|----------------------------------|
B|----------------------------------|
G|------------5/7---------------7b8-|
D|----------------5-3---------------|
A|----------------------------------|
E|----------------------------------|

Guitar 1
e|----------------------------------------------------------------|
B|----------------------------------------------------------------|
G|----------------------------------------------------------------|
D|-1-1-x-1-1-x--3-3-x-3-3-x-3-3-x--1-1-x-1-1-x--3-3-x-3-3-x-3-3-x-|
A|-1-1-x-1-1-x--3-3-x-3-3-x-3-3-x--1-1-x-1-1-x--3-3-x-3-3-x-3-3-x-|
E|-1-1-x-1-1-x--3-3-x-3-3-x-3-3-x--1-1-x-1-1-x--3-3-x-3-3-x-3-3-x-| 

Guitar 2
e|----------------------------------------------------------------|
B|----------------------------------------------------------------|
G|--------------5/7-----------------------------7b8---------------|
D|------------------5-3-------------------------------------------|
A|----------------------------------------------------------------|
E|----------------------------------------------------------------|

That’s pretty much it.  There’s some Guitar 2 stuff going on at the 
end, but it’s too faint to even hear.  It’s not hard you can improvise
it from the stuff I gave you – it follows the same basic pattern.
Comments