Ingrid Michaelson - Corner Of Your Heart Chords & Tabs

 

Corner Of Your Heart Chords & Tabs

Ingrid Michaelson Chords & Tabs

Version: 4 Type: Tab 0 ratings
1 star 2 stars 3 stars 4 stars 5 stars
comments

Corner Of Your Heart Tab

The others are close. This is the way it goes

3x
e|---------------|
B|--------11-----|
G|-----10----10--| Bb Maj
D|--8------------|
A|---------------|
E|---------------|

1x
e|---------------|
B|--------11-----|
G|-----9-----9---|
D|--10-----------| C7
A|---------------|
E|---------------|
[ Tab from: http://www.guitartabs.cc/tabs/i/ingrid_michaelson/corner_of_your_heart_tab_ver_4.html ]
2x
e|---------------|
B|--------10-----|
G|-----10----10--|
D|--12-----------|Dm
A|---------------|
E|---------------|

2x
e|---------------|
B|--------10-----|
G|------10----10-|Fmaj
D|--10-----------|
A|---------------|
E|---------------|

Just repeat these to the end of the song. Lots of times...Enjoy! Email with 
questions, magrodydog@yahoo.com
Comments