Ingrid Michaelson - Corner Of Your Heart Chords & Tabs

 

Corner Of Your Heart Chords & Tabs

Ingrid Michaelson Chords & Tabs

Version: 3 Type: Tab 0 ratings
1 star 2 stars 3 stars 4 stars 5 stars
comments

Corner Of Your Heart Tab

This is the way I play it. I took the piano notes and then translated it to the guitar.

2x
e|---------------|   
B|--------10-----|
G|-----10----10--|
D|--12-----------|
A|---------------|
E|---------------|
[ Tab from: http://www.guitartabs.cc/tabs/i/ingrid_michaelson/corner_of_your_heart_tab_ver_3.html ]
2x
e|---------------|   
B|--------10-----|
G|-----10----10--|
D|--10-----------|
A|---------------|
E|---------------|

3x
e|---------------|   
B|--------11-----|
G|-----10----10--|
D|--8------------|
A|---------------|
E|---------------|

1x
e|---------------|   
B|--------11-----|
G|------9-----9--|
D|--10-----------|
A|---------------|
E|---------------|


Comments