Infringment - Beast Chords & Tabs

 

Beast Chords & Tabs

Infringment Chords & Tabs

Version: 2 Type: Tab 0 ratings
1 star 2 stars 3 stars 4 stars 5 stars
comments

Beast Tab

song: Beast
Band: Infringment
tunning: Dropped D for the good heavy sound!!!!!

tabbed by jimmy

When i made this tab before i made an error this is how the the intro
verse and chorus goes!! Sorry bout that. This song is now 100% right.
I know for sure

at the start the 2 guitars play this 
Intro 1
-------------------                         -----------------
-------------------thats wat the            -----------------
-------------------lead plays.              -----------------thats the
-2-2-2-2-----------listen to the            -5-5-5-5---------main guitar
-2-2-2-2-----------song to see how          -3-3-3-3---------
-------------------many times to play it    -3-3-3-3---------

Intro2
----------------------------------
----------------------------------
----------------------------------
---------------------------------- thats the intro. Play that about 
---------------------------------- 6-7 times at a fast speed. 
-0-0-3-0-0-5-0-0-6-0-6-0-5-0-3----

the verse is very easy its just 

------------------------------------------
------------------------------------------
------------------------------------------
-0-0-0-0-3-3-3-3/5-5-5-5/6-6-6-6---------- thats the verses there.
-0-0-0-0-3-3-3-3/5-5-5-5/6-6-6-6---------- play them about 6-7 times 
-0-0-0-0-3-3-3-3/5-5-5-5/6-6-6-6---------- aswell.

thats pretty much the song there. Thats wat the main guitar plays.
the lead plays different stuff. 

AFter the two verese the lead guitar goes into this

---------
---------
--------- strums that hard and
--------- fast for a while.
-7-------
-5-------

while the lead is playing that the main guitar comes in and starts playin
this after a while.
[ Tab from: http://www.guitartabs.cc/tabs/i/infringment/beast_tab_ver_2.html ]
----------------------------------------------------------
----------------------------------------------------------
----------------------------------------------------------
----------------------------------------------------------
-4-----4-----4-----4--------------------------------------
-2-----2-----2-----2---0-0-3-0-0-5-0-0-6-0-6-0-5-0-3------

After this inturalude they go into the chorus without singing it thou.
after the usual 6 times of playing the chorus riff they go into the brigde.
which is
just the main guitar playing the chorus riff. he starts off playing
it very softly then begins to build it up.

after he plays it 4 times the lead guitar comes in and plays 

-------------------------------------------
-------------------------------------------
-------------------------------------------He plays that four times.
-------------------------------------------
-77777777-99999999-101010101010101010------
-------------------------------------------

after this part it just goes into the chorus to finsih it off.
There we go that beast. Its a good song.
Listen to the song for the timing of it.

thanx

song layout for main guitar!!!!

intro1 x4
intro2 x6
verse1 x6
chorus x6
verse2 x6
chorus x6
introlude x5
chorus x6
bridge x8
chorus x6

the lead guitar is very easy he just strums

Em chord in the chorus very fast.
and in the verses he plays

-------------------------------------
-------------------------------------
-------------------------------------
--------------------- thats it. he just plays
-7777-9999-7777------ that over and over again 
-5555-7777-5555------ in the chorus

Thankyou hope you like it!!!!!!!!!!!!!!!!!!!1

jimmy




Comments