Infringment - Beast Chords & Tabs

 

Beast Chords & Tabs

Infringment Chords & Tabs

Version: 1 Type: Bass Tab 0 ratings
1 star 2 stars 3 stars 4 stars 5 stars
comments

Beast Bass Tab

song: Beast
band: INfringment
Tunning: Dropped D

Tabbed by 
Jimmy

i play both guitar and bass. So i know that this song is correct.
I tabbed the guitar part out before. So now this is the bass part.

intro

------------------------------------
------------------------------------Thats the intro of it!!
------------------------------------
-0-0-3-0-0-5-0-0-6-0-6-0-5-0-3------

Verses 1/2 (both the same)

--------------------------------------
-------------------------------------- Thats the verses
--------------------------------------
-0-0-0-0-3-3-3-3/5-5-5-5/-6-6-6-6-----

chorus
[ Tab from: http://www.guitartabs.cc/tabs/i/infringment/beast_btab.html ]
----------------------------------
----------------------------------
---------------------------------- thats the chorus
-0-0-3-0-0-5-0-0-6-0-6-0-5-0-3----

Intolude

----------------------------------------------------------
----------------------------------------------------------
----------------------------------------------------------
-0~-0~-0~-0~-0-0-3-0-0-5-0-0-6-0-6-0-5-0-3----------------

chorus x6

bridge

---------------------------------
--------------------------------- this part you have to play softly
---------------------------------
-0-0-3-0-0-5-0-0-6-0-6-0-5-0-3---

chorus

Well thats the bass tab for BEast
Pretty easy.
Hope you like it!!!!!!

song order

Intro  x6
verse1 x6
chorus x6
verse2 x6
chorus x6
intolude x6
chorus x6
bridge x8
chours x6

enjoy!!!!!!!!!!!!!!!!!!!!!!!!!!!!!!!!!!!!!!!!!!!!
Comments