Infectious Grooves - Spric Chords & Tabs

 

Spric Chords & Tabs

Infectious Grooves Chords & Tabs

Version: 1 Type: Bass Tab 0 ratings
1 star 2 stars 3 stars 4 stars 5 stars
comments

Spric Bass Tab

Infectious Grooves
Spric
from Sarsippius Ark (limited edition) 
Tabbed by Rodrigo G. Segura (nueayr@yahoo.com)



G|--------------------------|
D|--------------------------|
A|----7-4-------------4-----|
E|--0-----5--0----3-5-------|


[ Tab from: http://www.guitartabs.cc/tabs/i/infectious_grooves/spric_btab.html ]
G|-10--------5--10--9-7-----10------5---------------------------------
D|-10------4----10----------10----4-----7--5--------------------------
A|-------5----------------------5-------------------------------------
E|--------------------------------------------------------------------


I LIKE PRIMUS, INFECTIOUS GROOVES, RED HOT CHILI PEPPERS, AND I PLAY A SIX
STRING BASS. IF YOU KNOW OTHER INFECTIOUS GROOVES SONGS, PLEASE EMAIL ME.
Any questions, comments, email me nueayr@yahoo.com 
Comments