Infectious Grooves - Cousin Randy Chords & Tabs

 

Cousin Randy Chords & Tabs

Infectious Grooves Chords & Tabs

Version: 3 Type: Bass Tab 0 ratings
1 star 2 stars 3 stars 4 stars 5 stars
comments

Cousin Randy Bass Tab

Infectious Grooves - Cousin Randy from 'Groove Family Cyco'

Tabbed by Peter Kondrup


  Intro - follow the rhythm and play the D's
  then in comes (at 00:30):
G|------------- -1917--1719---1917--1720-|
D|------------- -----19-----------19-----|
A|------------- -------------------------|
E|------------- -------------------------|
B|-3~---------- -------------------------|
                  ^play fast
  Slap!
G|-------------4---------------------------------------------------|
D|-----------------3-----------------------------------------------|
A|---5-----3-------------3-----3---5-----3-----3-4-5-----5--5--5---|
E|-----------------------------------------------------------------|
B|-3---3-3---3---3---3-3---3-3---3---3-3---3-3-------3-3---3-3---3-|

  Verse
G|---------4-------------------------------------------------------|
D|-------------3---------------------------------------------------|
A|---5-------------5-----3-----3---5-----3-----3-4-5-----5--5--5---|
E|-----------------------------------------------------------------|
B|-3---3-3---3---3---3-3---3-3---3---3-3---3-3-------3-3---3-3---3-|
[ Tab from: http://www.guitartabs.cc/tabs/i/infectious_grooves/cousin_randy_btab_ver_3.html ]
  Chorus
G|-----------6-----------------------------------------------------|
D|-----6---------6-----5-----5-------------------------------------|
A|---------4-------------------------------7-----7---------7-----7-|
E|-4-----4-----4---3-----3-3---3-----------------------------------|
B|---------------------------------5-----5-----5---5-----5-----5---|

  Heavy bridge part
G|----------------------------------------------------------------|
D|----------------------------------6-----6---6-----6-----6---6---|
A|-5-555-4-3---3-333-2-1--1-111-0---------------------------------|
E|--------------------------------4---4-4---4---4-4---4-4---4---4-|
B|----------------------------------------------------------------|

G|-------------------------------------------------|
D|-------------------------------------------------|
A|-----------------4-------5-------8-7-6---6-5-----|
E|-3-333-6-5-3-5-6-----5-------6---------7-----6-5-|
B|-------------------------------------------------|

  Harmonics-thingy at the end
G|------------------<4>------<4>---|
D|---<7><5><4>----<4>------<5>-<4>-|
A|-<7>-----------------------------|
E|---------------------------------|
B|---------------------------------|
Comments