Infectious Grooves - Cousin Randy Chords & Tabs

 

Cousin Randy Chords & Tabs

Infectious Grooves Chords & Tabs

Version: 1 Type: Bass Tab 0 ratings
1 star 2 stars 3 stars 4 stars 5 stars
comments

Cousin Randy Bass Tab

Infectious Grooves
Cousin Randy
from Groove Family Cyco
Tabbed by Rodrigo G. Segura (nueayr@yahoo.com)


5 strings
[ Tab from: http://www.guitartabs.cc/tabs/i/infectious_grooves/cousin_randy_btab.html ]
G|-------------4-----------------------------------------------------------
D|-----------------3-------------------------------------------------------
A|---5-----3-------------5-----3---5-----3-------3-3-4-5---------5---5-----
E|-------------------------------------------------------------------------
B|-3---3-3---3---3---3-3---3-3---3---3-3--3-3------------3-3---3---3-------


G|---------4-----------------------------------------------------------
D|-------------3-------------------------------------------------------
A|-----3-------------5-----3---5-----3-------3-3-4-5---------5---5-----
E|---------------------------------------------------------------------
B|-3-3---3---3---3-3---3-3---3---3-3--3-3------------3-3---3---3-------


Comments