Indochine - Jai Demand La Lune Chords & Tabs

 

Jai Demand La Lune Chords & Tabs

Indochine Chords & Tabs

Version: 1 Type: Tab 0 ratings
1 star 2 stars 3 stars 4 stars 5 stars
comments

Jai Demand La Lune Tab

   
-----------------------------------------------------------------------------
		   J'ai Demandé à la Lune - Indochine
-----------------------------------------------------------------------------
Tabbed by: 	eXploZive
Email:		zplozive@hotmail.com

Tuning: Standard (e B G D A e)	

Intro: 
e|------------------------------|
B|------------------------------|
G|------------------------------|
D|------------------------------|
A|-\9-----9-----/12------14-----|
E|----\9-----9------/12------14-|
[ Tab from: http://www.guitartabs.cc/tabs/i/indochine/jai_demand_la_lune_tab.html ]
Verse:  
e|------------------------------|
B|------------------------------|
G|------------------------------|
D|------------------------------|
A|-\9-----9-----/14------14-----|
E|----\9-----9------/14------14-|

e|------------------------------|--------------------------------|
B|------------------------------|--------------------------------|
G|------------------------------|--------------------------------|
D|------------------------------|--------------------------------|
A|-\9-----9-----/16------16-----|-\14-----14-----\12------12-----|
E|----\9-----9------/16------16-|----\14-----14------\12------12-|

Repeat:
 Before techno:
  Intro 6x
  Intro & Verse until the techno music begin.
 
 After techno: 
  Intro 4x
  Just listen to the song it's about the same repeats as before :P

| / = slide up
| \ = slide down
=============================================================================
Comments