Indk - Rent For Sale Chords & Tabs

 

Rent For Sale Chords & Tabs

Indk Chords & Tabs

Version: 1 Type: Bass Tab 0 ratings
1 star 2 stars 3 stars 4 stars 5 stars
comments

Rent For Sale Bass Tab

----------------------------------------------------------------------------
			   Rent for Sale - INdK
----------------------------------------------------------------------------
Tabbed By : crackdaddycaine
e-mail: crackdaddycaine@hotmail.com

Intro
G|---------------------------------------------
D|---------------------------------------------
A|-----6-6-----6-6-----------------------------
E|--7-7----7-7------5-5-8----------------------

[ Tab from: http://www.guitartabs.cc/tabs/i/indk/rent_for_sale_btab.html ]
Verse
G|-------------------------
D|-------------------------
A|-------------------------
E|-7777---5-5---8-8--------


Pre-Chorus
G|----------------------
D|----------------------
A|---------------5------
E|--7-7-3-3-5-5----5----

Chorus
G|------------------------------------------------------------
D|------------------------------------------------------------
A|--5555-------------------5-5--------------------------------
E|--------5-5-3-3-7777-3-3------------------------------------

that should be pretty close, email me if its fucked up or something
Comments