Individual Thought - Long Chords & Tabs

 

Long Chords & Tabs

Individual Thought Chords & Tabs

Version: 1 Type: Tab 0 ratings
1 star 2 stars 3 stars 4 stars 5 stars
comments

Long Tab

Individual Thought -Long 


This is the intro no bass
|----------------------------------------------------| 
|-1---1-111-0---0-0-0000-----------------------------| 
|-2---2-222-2---2-2-2222-----------------------------| 
|-2---2-222-2---2-2-2222-----------------------------| 
|----------------------------------------------------|   
|----------------------------------------------------| 
play 4 times
Then the chourus goes

|----------------------------------------------------| 
|-2-2-5557-77777-------------------------------------| 
|-2-2-5557-77777-------------------------------------| 
|-2-2-5557-77777-------------------------------------| 
|----------------------------------------------------|   
|----------------------------------------------------| 
 
after 4 times, let the base cut in by cutting out the last 4 7's and play that 4 times.

[ Tab from: http://www.guitartabs.cc/tabs/i/individual_thought/long_tab.html ]
Here's the verse
|----------------------3--3--333-2--2-2/5555\2--2-222---| 
|-2--2--222----------------------3--3-3/6666\3--3-333---| 
|-2--2--222-2--2-2-222-----------2--2-2/5555\2--2-222---| 
|-2--2--222-2--2-2-222----------------------------------| 
|----------------------2--2--222------------------------|   
|----------------------3--3--333------------------------| 

kinda weird, but all basic chords. Then play the chorus, verse, chorus, and then play the bridge which goes-
|----------------------------------------------------| 
|----------------------------------------------------| 
|----------------------------------------------------| 
|---------------------5--5--555-5-5-5555-------------| 
|-5--5-555-3--33-3333-3--3--333-3-3-3333-------------|   
|-3--3-333-1--11-1111--------------------------------| 
play 4 times when he sings all the swears and gargles.
Then play the chorus again, and end with a A.
Comments