Indigo Girls - Language Or The Kiss Chords & Tabs

 

Language Or The Kiss Chords & Tabs

Indigo Girls Chords & Tabs

Version: 1 Type: Tab 0 ratings
1 star 2 stars 3 stars 4 stars 5 stars
comments

Language Or The Kiss Tab

************************************* Notes ******************************************
* This tab includes Emily's portion minus her solo. Depending on which version you   *
* listen to you will find some differences. Leave it to the creativity of Emily that *
* she rarely plays it the same twice. This should provide enough of a guideline to   *
* pull it together however. I'm almost certain this is played tuned to DADGBE and I  *
* suspect Amy's accompaniament is simply in standard tuning.                         *
*                                                                                    *
* If you know better, please let me know!                                            *
* James (sir@mangeek.com)                                                            *
*                                                                                    *
**************************************************************************************

                               Language or the Kiss                                         


                                                                            Indigo Girls
Track 1



     S S S S S S S S S S S  S S S S  H        H           E  S  S S S S S S S S E  E  S  
E||----------0-----------------------------------------|--------------------------------|
B||--------1---1---1-3--------1------------------------|------------1-----1-----1--1--0-|
G||------0-------0-------------------------------------|----------0-----0-----0---------|
D||----2-----------------0h-2-----0h-2-----------------|-----2h-3-----3-----3-----------|
A||--3-----------------3--------3----------------------|--------------------------------|
D||----------------------------------------------------|--0-----------------------------|


  S S S S S S S S S E  S S  S  S  Q    Q       S S S T  S. S S S S S S S  S  S S E  E   
--------------------------------------------|------------------------------------------|
--------3-----1-----3--1-3h-5p-3p-1---------|------------------------------------------|
------0-----0---0-0-------------------------|------0-------0---0-------4h-5p-4---------|
----0-----0---------------------------------|----0---0h-2----0-------5---------5-------|
--------------------------------------------|----------------------5-------------5-----|
--2-----------------------------------------|--3-----------------5---------------------|


    S S S S S S S S S S S  S S S S  H        H           E  S  S S S S S S S S E  E  S  
||-----------0-----------------------------------------|--------------------------------|
||---------1---1---1-3--------1------------------------|------------1-----1-----1--1--0-|
||*------0-------0-------------------------------------|----------0-----0-----0---------|
||*----2-----------------0h-2-----0h-2-----------------|-----2h-3-----3-----3-----------|
||---3-----------------3--------3----------------------|--------------------------------|
||-----------------------------------------------------|--0-----------------------------|


  S S S S S S S S S E  S S  S  S  Q    Q       S S S T  S. S S S S S S S  S  S S E  E   
--------------------------------------------|------------------------------------------|
--------3-----1-----3--1-3h-5p-3p-1---------|------------------------------------------|
------0-----0---0-0-------------------------|------0-------0---0-------4h-5p-4---------|
----0-----0---------------------------------|----0---0h-2----0-------5---------5-------|
--------------------------------------------|----------------------5-------------5-----|
--2-----------------------------------------|--3-----------------5---------------------|


  S S S E  S S S S S S E  S S Q    Q       E.  S S  S S S S E  E  E  S  
----------------------------------------|------------------------------|
--------1--1---1-------1--1---1---------|---------------1---1--1--1--0-|
------0--------------0------------------|-------------0----------------|
----2--------2-----2--------2-----------|--------2h-3-----3------------|
--3--------------3----------------------|------------------------------|
----------------------------------------|--0---0-----------------------|

( ^^ vocals enter)

[ Tab from: http://www.guitartabs.cc/tabs/i/indigo_girls/language_or_the_kiss_tab.html ]
  E  S E  S S S E  S E  S S E  E     E.  T  S. S S S E  S S  S  S S E  E   
----------------------------------|---------------------------------------|
----------3-------------3---------|---------------------------------------|
-------0------0------0------0-----|------------0---0------4h-5p-4---------|
-----0------0------0------0-------|------0h-2----0------5---------5-------|
----------------------------------|---------------------------------5-----|
--2-------------2-----------------|--3---------------5--------------------|


  S S S E  S S S S S S E  S S Q               E.  S S  S S S S E  E  E  S  
-------------------------------------------|------------------------------|
--------1--1---1-------1--1---1------------|---------------1---1--1--1--0-|
------0--------------0---------------------|-------------0----------------|
----2--------2-----2--------2--------------|--------2h-3-----3------------|
--3--------------3-------------------------|------------------------------|
-------------------------------------------|--0---0-----------------------|


  E  S E  S S S E  S E  S S E  E     E.  T  S. S S S E  S S  S  S S E  E   
----------------------------------|---------------------------------------|
----------3-------------3---------|---------------------------------------|
-------0------0------0------0-----|------------0---0------4h-5p-4---------|
-----0------0------0------0-------|------0h-2----0------5---------5-------|
----------------------------------|---------------------------------5-----|
--2-------------2-----------------|--3---------------5--------------------|


  S S S E  S S S S S S E  S S Q    Q       E.  S S  S S S S E  E  E  S  
----------------------------------------|------------------------------|
--------1--1---1-------1--1---1---------|---------------1---1--1--1--0-|
------0--------------0------------------|-------------0----------------|
----2--------2-----2--------2-----------|--------2h-3-----3------------|
--3--------------3----------------------|------------------------------|
----------------------------------------|--0---0-----------------------|


  E  S E  S S S E  S E  S S E  E     E.  T  S. S S S E  S S  S  S S E  E   
----------------------------------|---------------------------------------|
----------3-------------3---------|---------------------------------------|
-------0------0------0------0-----|------------0---0------4h-5p-4---------|
-----0------0------0------0-------|------0h-2----0------5---------5-------|
----------------------------------|---------------------------------5-----|
--2-------------2-----------------|--3---------------5--------------------|


  S S S E  S S S S S S E  S S Q    Q    W                   E.  S S  S S S S E  E  E  S  
---------------------------------------------------------|------------------------------|
--------1--1---1-------1--1---1--------------------------|---------------1---1--1--1--0-|
------0--------------0-----------------------------------|-------------0----------------|
----2--------2-----2--------2----------------------------|--------2h-3-----3------------|
--3--------------3---------------------------------------|------------------------------|
---------------------------------------------------------|--0---0-----------------------|


  E  S E  S S S E  S E  S S E  E     E.  T  S. S S S E  S S S S S S E   
----------------------------------|------------------------------------|
----------3-------------3---------|---------------------------0--------|
-------0------0------0------0-----|------------0---0--------0---0------|
-----0------0------0------0-------|------0h-2----0--------0-------0----|
----------------------------------|---------------------5-----------5--|
--2-------------2-----------------|--3---------------5-----------------|


  E  S E  S S S E  S E  S S S    E  S E  S S S E  S E  S S S    E  S E  S S S E  S E  S S S  
------------------------------|------------------------------|------------------------------|
----------1---1---------1---1-|----------1---1---------1---1-|----------5---5---------5---5-|
-------2----2--------2----2---|-------0-------------0--------|-------0-------------0--------|
-----0-------------0----------|-----3------3------3------3---|-----2------2------2------2---|
------------------------------|------------------------------|--3-------------4-------------|
--4-------------4-------------|--3-------------3-------------|------------------------------|


  E  S E  S S S E  S E  S S S    E  S E  S S S E  S E  S S S    H        H                       
------------------------------|------------------------------|-----------7---------||
----------6---6---------6---6-|----------1---1---------1---1-|--1--------8---------||
-------0-------------0--------|-------2----2--------2----2---|--0--------5--------*||
-----3------3------0------0---|-----0-------------0----------|--3--------5--------*||
--5---------------------------|------------------------------|-----------5---------||
----------------5-------------|--4-------------4-------------|--3--------5---------||



Duration Legend
---------------
W - whole
H - half
Q - quarter
E - 8th
S - 16th
T - 32nd
Comments