Indigenous - Got To Tell You Chords & Tabs

 

Got To Tell You Chords & Tabs

Indigenous Chords & Tabs

Version: 2 Type: Bass Tab 0 ratings
1 star 2 stars 3 stars 4 stars 5 stars
comments

Got To Tell You Bass Tab

Got To Tell You - Indigenous

  intro
G|---------------------------------------------------------------------------------------------
D|---7-57----5756---7-57----55-----------------------------------------------------------------
A|0-------057----0-------057--75---7-57----5756--7-57----55-------------------------------7-57-
E|------------------------------0-------057----0------057--757-7-57-077-789-9-9-07-7-7-0-------

---------------|
---------------|
---5756--------|
057----0-3-57--|
[ Tab from: http://www.guitartabs.cc/tabs/i/indigenous/got_to_tell_you_btab_ver_2.html ]
  verse
G|---------------------------------------------------------------------------------------------
D|--------------------------------------------------------------7-57----5756---7-57----55------
A|---7-57----5756---7-57----5756---7-57----5756---7-57----57560------057----0-------057--75---7
E|0-------057----0-------057----0-------057----0-------057---------------------------------0---

--------------------------------------------------------------------------|
--------------------------------------------------------------------------|
-57----5756---7-57----55------------------------------7-57----5756--------|
----057----0-------057--757-7-57-077-789-9-9-07-7-7-0------057----0-3-57--|

  outro riff
G|--------------------|
D|----5---------------|
A|--57---7-57---------|
E|57----------0--57570|

tabbed by Achilles (blue_sincere@hotmail.com)
Comments