India Arie - Interludes Chords & Tabs

 

Interludes Chords & Tabs

India Arie Chords & Tabs

Version: 2 Type: Tab 0 ratings
1 star 2 stars 3 stars 4 stars 5 stars
comments

Interludes Tab

India Arie- Interludes from her album ACOUSTIC SOUL

============================================================================
Track 01- ACOUSTIC SOUL


e-----
b-----------------------------------------|
g-----------------------------------------|
d-----------------------------------------|
a--3---5---7---7-5-3---5---7---7--5--3----|Repeat
e-----------------------------------------|

Refer to the CD for the sound/words.

=============================================================================

TRACK 09- ACOUSTIC SOUL

e--------0-------------0---|--------0-----------0------0-|--------|R
b------7---7---------5---5-|------3---3-------3------5/7-|--------|E
g----0------------0--------|---0------------0------0-----|--------|P
d--------------------------|-----------------------------|--------|E
a--7-----------5-----------|-3------------3-------5------|--------|A
e--------------------------|-----------------------------|--------|T
[ Tab from: http://www.guitartabs.cc/tabs/i/india_arie/interludes_tab_ver_2.html ]
 " / " means to slide 2 the next note.

This is fairly simple. Listen to the Track to perfect your style.

=============================================================================

TRACK 15-ACOUSTIC SOUL

Use the same notes from Track in in this one. Arie simply repeats the notes. The
only difference is a base line she adds. I've included it below. Listen to the track
so you'll know when to use it.

e--------0-------------0---|--------0---0-------------------|
b------7---7---------5---5-|------3---3---------------------|
g----0------------0--------|---0----------------------------|
d--------------------------|------------------------------0-|
a--7-----------5-----------|-3----------------------0--2----|
e--------------------------|---------------0--2--3----------|

==============================================================================

Sorry, I don't know the song titles because I borrowed the CD from a friend.
Email me if you have any questionS: youngfishbone21@aol.com
26.05.02
Comments