Indecisives - Goodbye Till Tomorrow Chords & Tabs

 

Goodbye Till Tomorrow Chords & Tabs

Indecisives Chords & Tabs

Version: 1 Type: Tab 0 ratings
1 star 2 stars 3 stars 4 stars 5 stars
comments

Goodbye Till Tomorrow Tab

   
Artist: the Indecisives
Song Title: Goodbye Till Tomorrow
Tabbed by: Mike Vittone

Fast Punk/Ska Beat
4/4 Time
Standard Tuning

Intro/Chorus
     C#                    G#                     F#
e|---------------------------------------------|-----------------------
B|---------------------------------------------|-----------------------
G|---6---6-------------------------------------|-----------------------
D|---6---6---6--4-3--4-6---6---6---------------|--4---4----------------
A|---4---4-----------------6---6---6--4-3--4-6-|--4---4---4--2-1--2-4--
E|-------------------------4---4---------------|--2---2----------------
         
   Bb         G#
e|---------------------|
B|---------------------|
G|-3--3-3--x-----------|
D|-3--3-3--x--6-6--6-x-|
A|-1--1-1--x--6-6--6-x-|
E|------------4-4--4-x-|
[ Tab from: http://www.guitartabs.cc/tabs/i/indecisives/goodbye_till_tomorrow_tab.html ]
Verse
       C#         F#         Bb         G#
e|---------------------------------------------|
B|---------------------------------------------|
G|-x-x-6-6-6--x-x------------3-3-3-------------|
D|-x-x-6-6-6--x-x-4-4-4--x-x-3-3-3--x-x-6-6-6--|
A|-x-x-4-4-4--x-x-4-4-4--x-x-1-1-1--x-x-6-6-6--|
E|----------------2-2-2--x-x--------x-x-4-4-4--|


Post-Chorus
   C#         F#         Bb         G#
e|---------------------------------------------|
B|---------------------------------------------|
G|-6-6-6--6-6------------3-3-3--3-3------------|  Third Time through
D|-6-6-6--6-6-4-4-4--4-4-3-3-3--3-3-6-6-6--6-6-|  omit the G# Chord.
A|-4-4-4--4-4-4-4-4--4-4-1-1-1--1-1-6-6-6--6-6-|
E|------------2-2-2--2-2------------4-4-4--4-4-|


Break
    C#          G#          F#          Bb   G#
e|---------------------------------------------|
B|---------------------------------------------|
G|--------------------------------------3--x---|
D|--6--4-3-4-6--------------------------3--x-6-|
A|--------------6--4-3-4-6--4--2-1-2-4--1--x-6-|
E|-----------------------------------------x-4-|


Order

Intro - 2X
Verse - 4X
Chorus - 2X
Post-Chorus - 3X
Break - 4X
Verse - 4X
Chorus - 2X
Post-Chorus - 6X
End on a C# chord



This is not all 100% correct but it's the best i can do.  
I can't find any Indecisives tabs online so if anyone 
can make any or find any let me know.

comments...questions...woodstock116@yahoo.com
Comments