Incubus - You Will Be A Hot Dancer Chords & Tabs

 

You Will Be A Hot Dancer Chords & Tabs

Incubus Chords & Tabs

Version: 2 Type: Tab 0 ratings
1 star 2 stars 3 stars 4 stars 5 stars
comments

You Will Be A Hot Dancer Tab

   
	     SONG: You Will Be A Hot Dancer
	     BAND: Incubus
	    ALBUM: Enjoy Incubus
	   TUNING: (E,A,D,G,B,E)


     INTRO/VERSE: (rhythm is very tricky)

    E|-4/5-5-xx-5-x-5-xx-5-5-x-5555-4-xx-4/5-5-x-8x8P5-5-5555-4-|
    B|-4/5-5-xx-5-x-5-xx-5-5-x-5555-4-xx-4/5-5-x-8x8P5-5-5555-4-|
    G|-4/5-5-xx-5-x-5-xx-5-5-x-5555-4-xx-4/5-5-x-8x8P5-5-5555-4-|
    D|----------------------------------------------------------|
    A|----------------------------------------------------------|
    E|----------------------------------------------------------|

     PRE-CHORUS:

    E|---------------|
    B|---------------|
    G|---------------|
    D|--66-77-88-99--|
    A|--66-77-88-99--|
    E|--44-55-66-77--|
        pm.........

     CHORUS:

    E|----xxxxxxx----xxxxxxx----xxxxxxxx----xxxxxxxx--|
    B|----xxxxxxx----xxxxxxx----xxxxxxxx----xxxxxxxx--|
    G|----xxxxxxx----xxxxxxx----xxxxxxxx----xxxxxxxx--|
    D|-22---------22---------22----------22-----------|
    A|-22---------22---------22----------22-----------|
    E|-00---------00---------00----------00-----------|

     AFTER 2ND CHORUS:

    E|-----------------------------------------------------------------------|
    B|-----------------------------------------------------------------------|
    G|--7--7--7--7--------5--5--5--5------7--7--7--7---2---------------------|
    D|--7--7--7--7--------5--5--5--5------7--7--7--7-----00-320--------3333--|
    A|--5--5--5--5--------3--3--3--3------5--5--5--5------------310----3333--|
    E|--------------------------------------------------------------32-1111--|

     SOLO:

    E|----------------------------------------------------------------------------|
    B|-----------------------------------------------------------------------12^--|
    G|-14---------------------10P9H10P9H10P9--10-10-9H10P9-----------10P9H10------|
    D|-----15--10-10-10-12----------------------------------10H12-----------------|
    A|----------------------------------------------------------------------------|
    E|----------------------------------------------------------------------------|

    E|----------------------------------------------------------------------------|
    B|-10-8-10-8^slight bend---12^-12^-12^-10-8-10-8^slight bend------------------|
    G|------------------------------------------------------------10-10-10-10\9---|
    D|----------------------------------------------------------------------------|
    A|----------------------------------------------------------------------------|
    E|----------------------------------------------------------------------------|

    E|----------------------------------------------------------------------------|
    B|---------18-18-17-15----15-----------------------18-18-------18-18----18----|
    G|---------------------17----17-15-14^--------17-17------17-17-------------19-|
    D|-10-12--------------------------------15-15---------------------------------|
    A|----------------------------------------------------------------------------|
    E|----------------------------------------------------------------------------|
[ Tab from: http://www.guitartabs.cc/tabs/i/incubus/you_will_be_a_hot_dancer_tab_ver_2.html ]
    E|----------------------------------------------------------------------20^---|
    B|----18----------------------------------------------------------------19^---|
    G|-19----19-17-17^-17----17------------------------------------19-17H19-------|
    D|--------------------19----19-17^--17-------17-17-17-19-17-15----------------|
    A|-------------------------------------15-15----------------------------------|
    E|----------------------------------------------------------------------------|

you wil be a hot dancer solo
tabber:enjoyincubus 69
most other versions i have played were pants so here is my attempt

------------------------------------------------------------------------------
-10---------------------------------------------------------------------------
-----------------------10p9-10p9-10-10-10-10----------------------------------
-------10h12---10h12---------------------------10---10h12---------------------
------------------------------------------------------------------------------
------------------------------------------------------------------------------
                                                                              

------------------------------------------------------------------------------
-----------12vvvp10--10-----------12-12vvvp10--10-----------------------------
-12p10h12----------12---12b14r12-------------12---12b14r12--------------------
------------------------------------------------------------------------------
------------------------------------------------------------------------------
------------------------------------------------------------------------------
                                                                              

------------------------------13-12-11-10----10-------------------------------
------------------------------------------13----13-12b14vvv-------------------
--10/9---10p9-----------------------------------------------------------------
----------------10h12-10h12---------------------------------------------------
------------------------------------------------------------------------------
------------------------------------------------------------------------------
                                                                              

--------------13-13-------13---13--10-10--13p10-------------------------------
--------12-12-------12-12-----------------------------------------------------
--10-10-----------------------------------------------------------------------
------------------------------------------------------------------------------
------------------------------------------------------------------------------
------------------------------------------------------------------------------
               

----10-----------------------------------------------------------10--10-------
-13----13b15----10--------------------------------------------13-----13b15----
-------------12----12b14r12-----10-10--10/12---/14\12--10--12-----------------
------------------------------------------------------------------------------
------------------------------------------------------------------------------
------------------------------------------------------------------------------


Comments