Incubus - You Will Be A Hot Dancer Chords & Tabs

 

You Will Be A Hot Dancer Chords & Tabs

Incubus Chords & Tabs

Version: 2 Type: Bass Tab 0 ratings
1 star 2 stars 3 stars 4 stars 5 stars
comments

You Will Be A Hot Dancer Bass Tab

   
BAND: Incubus
SONG: You Will Be A Hot Dancer
TABLATURE: Bass
TABBED BY: Felix Michalowsky (maintainid@aol.com)
----------------------------------------------------------------

(XY) = slapped
/ and \ = slide up and down
~ = dead-note slide 
 
Intro (play 1x)
G----------------7--------------------------------
D-------------------------------------------------
A-----5--5-5-5----------------------------------
E--------------------5----------------------------
 
Verse pt.A
G-------------------------------------------------
D----------3---------------3---------------------
A-----5-5-------5-5-------------3---------------
E-------------5-------1-1-----1------------------

Verse pt.B
G--------------------------------------------------
D----------3--------------------------------------
A-----5-5---------------------------3-3----------
E-------------5-----3-3--4-4--5-5---------------

Verse pt.C
G------------------------7-7-5-7---7-------------
D----------3-------------------------|--------------
A-----5-5---------5-5--------------5----3-/------
E-------------5-------------------------------------

Last B-part modified
G---------------------------------------------------
D----------3------------ (5)----(6)-----(7)----------------
A-----5-5-------------- /--------/-------/-----------------
E-------------5------(33)---(44)---(55)------------------
 
 
Break-Part D

G--------------------------------------------------
D--------------------------------------------------
A----------------------------3-3------------------
E-----3-3----4-4----5-5-------------------------

Play verse 1 pts: A B A C A B A C A B-mod D

 
Chorus 

G--------------------------------------------------
D--------------------------------------------------
A--------------------------------------------------
E------0-0--/--13--\----% 3x || --0-0-/--1--\--- 
[ Tab from: http://www.guitartabs.cc/tabs/i/incubus/you_will_be_a_hot_dancer_btab_ver_2.html ]
G--------------------------------------------------
D--------------------------------------------------
A--------------------------------------------------
E------0-0--/--13--\-----% 3x ||--0-0-/--1--\---

Fill 1

G-----(7)-------(7)-------(7)-------(7)--------7/8-(7/8)-7/8\7-----------
D-----------------------------------------------------------------------------
A---------(55)------(55)-----(55)------(5`5)------------------------------
E-----------------------------------------------------------------------------

G--------------------------------6---5----------
D-------------------------------/----/------------
A---(0)-5-5-(0)--4-4-(0)---4----3------------
E-------------------------------------------------

 
G------(8)-----(8)------(8)------(8)---------------5----------
D---------------------------------------------------/------------
A----------(6)------(6)------(6)---- (6/6)---5~7-------------
E-----------------------------------------------------------------

 
G--------------(5)-/-7-\-5-------------------------------
D---------5/7---------------7-\-5------------------------
A----5/7----------------------------7--6-/-7-\-6--------
E----------------------------------------------------------

Play verse: A C A B A C A B D / Chorus 2X /

Fill 2 (play 4x)

G-----------9---------9----------9----------9------------------------------------------
D----------------------------------------------------8-7----8-7------------------------
A---7-7-7----7-7-7-----7-7-7-----7-7-7------------------------7-\------------------
E-----------------------------------------------------------------------7-7-70-0-0->

Bridge (play 4x + 2x / then D (slapped)

G--------------------------7----------------------------------------------------------
D------------------7-7-----------------5-/-7-\--------------------3--3-3------------
A------------5-5-------5----(0)-(55)------------3--3-3-(---)-----------3-/-5----
E----15-\------------------------------------------------------------------------------

 
Chorus 4x

Comments