Incubus - Wish You Were Here Chords & Tabs

 

Wish You Were Here Chords & Tabs

Incubus Chords & Tabs

Version: 8 Type: Tab 0 ratings
1 star 2 stars 3 stars 4 stars 5 stars
comments

Wish You Were Here Tab

-------------------------------------------------------------------------------
			   Wish You Were Here - Incubus
-------------------------------------------------------------------------------

By:Who Gives A Damn

(p) pause for 1 sec.
[ Tab from: http://www.guitartabs.cc/tabs/i/incubus/wish_you_were_here_tab_ver_8.html ]
Intro
e|---x-------x--------x-------x--------x-------------------------------------|
B|---x-------x--------x-------x--------x-------------------------------------|
G|---4-------4--------x-------x--------x-------------------------------------|
D|---2-------4--------4-------7--------2-------------------------------------|
A|---0-------2--------4-------7--------2-------------------------------------|
E|---0-------0--------2-------5--------0-------------------------------------|
Verse 1
e|---------------------------------------------------12----------------------|
B|-------------------------------------------------------9--10---------------|
G|---9--11---9--11--9--11----------------------9--11-------------------------|
D|--------------------------11p-----11--9---11-------------------------------|
A|---------------------------------------------------------------------------|
E|---------------------------------------------------------------------------|

I'll try to add more to the song next time.

===============================================================================
Comments