Incubus - Wish You Were Here Chords & Tabs

 

Wish You Were Here Chords & Tabs

Incubus Chords & Tabs

Version: 6 Type: Tab 0 ratings
1 star 2 stars 3 stars 4 stars 5 stars
comments

Wish You Were Here Tab

Artist: Incubus	
Song: I Wish You Were Here
Album: Morning View
Tabbed by Andrew (kraftkid87@hotmail.com)
Thanks to Claudio Anthony Morizio for help with this tab as well

(standard tuning)
I saw Mike play this on Leno and this is how he played this song I think. 
This is a revised version for a tab I posted a while ago
(strumming patterns not given)

Intro, Chorus
E----------------------------------------------------------
B----------------------------------------------------------
G--------4-----4-------------------------------------------
D--------2-----2----- 4/-------7-------2-------------------
A--------0-----2------2/-------5-------0-------------------
E---------------------2/-------5-------0-------------------

E---------------------------------------------------------
B---------------------------------------------------------
G--------4-----4------------------------------9/-11-------
D--------2-----2----- 4/-------7------2-------x--x--------
A--------0-----2------4/-------7------2-------7/-9--------
E---------------------2/-------5------0-------------------

[ Tab from: http://www.guitartabs.cc/tabs/i/incubus/wish_you_were_here_tab_ver_6.html ]
Here’s the lead riff played during the verses (with delay)
E--------------------------------------12--------------
B-----7---7--7----------------------------10p9---------
G---9--9--9-----------------------11-9-----------------
D-----------------11-------9h11p9----------------------
A------------------------------------------------------
E------------------------------------------------------



E-----------------------------------------------------------
B------7---7---7------------------------9-------------------
G---9---9---9-----------------------------9-----11----------
D------------------11--------9h11-11---------11-------------
A-----------------------------------------------------------
E-----------------------------------------------------------
                                    (repeat)

Interlude 

E-----------------------------------------------------------
B-----------------------------------------------------------
G-----6---9--7----------------------------------------12----
D-----x---x--x—play 2x the next 2x end on -------------x----
A-----4---7--5----------------------------------------10----
E-----------------------------------------------------------
Comments