Incubus - Wish You Were Here Chords & Tabs

 

Wish You Were Here Chords & Tabs

Incubus Chords & Tabs

Version: 14 Type: Tab 0 ratings
1 star 2 stars 3 stars 4 stars 5 stars
comments

Wish You Were Here Tab

   
I'm sure this is very accurate :)
Enjoy !!!!

Intro/chorus
-------------------------------
-------------------------------
4-4-4-4-4-4--------------------
2-2-2-2-2-2-4-4-4-/7\-2-2-2-2--
0-0-0-2-2-2-2-2-2-/5\-2-2-2-2--
------------2-2-2-/5\-0-0-0-0--
				you need to alternate this two riffs.
-------------------------------
-------------------------------
4-4-4-4-4-4--------------------
2-2-2-2-2-2-4-4-4-/7\-2-2-2-2--
0-0-0-2-2-2-4-4-4-/7\-2-2-2-2--
------------2-2-2-/5\-0-0-0-0--

then:
---------
---------
9/11-----
x-x------
7/9------
---------

with distortion:
-------------------------------
-------------------------------
4-4-4-4-4-4--------------------
2-2-2-2-2-2-4-4-4-/7\-2-2-2-2--
0-0-0-2-2-2-2-2-2-/5\-2-2-2-2--
------------2-2-2-/5\-0-0-0-0--

-------------------------------
-------------------------------
4-4-4-4-4-4--------------------
2-2-2-2-2-2-4-4-4-/7\-2-2-2-2--
0-0-0-2-2-2-4-4-4-/7\-2-2-2-2--
------------2-2-2-/5\-0-0-0-0--

verse:
------------------------------12---------
--7---7---7------------------------9h10--
9---9---9---6-----------(11)-------------
----------------11-9h11------------------  ( ) = optional 
-----------------------------------------
-----------------------------------------

[ Tab from: http://www.guitartabs.cc/tabs/i/incubus/wish_you_were_here_tab_ver_14.html ]
---------------------------------------------
--7---7---7----------------9-------------(7-7)
9---9---9---6------------9---9-11-9-11---(9-9)  ( ) = optional
----------------11-9h11----------------------
---------------------------------------------
---------------------------------------------


bridge:
------------------------------             --------------------------
------------------------------             --------------------------
6-6-6/9-9-9-7-7-7-7-----------      OR     --6-6-6-/-9-9-9-7-7-7-7--- 
4-4-4/7-7-7-5-5-5-5-----------2x           --x-x-x-/-x-x-x-x-x-x-x--- 
4-4-4/7-7-7-5-5-5-5-----------             --4-4-4-/-7-7-7-5-5-5-5---
------------------------------             --------------------------

when Brandon starts to sing "the world`s..."             I
                                                         I
------------------------------                           I 
------------------------------                           I
6-6-6/9-9-9-7-7-7-12-12-12----  ----OR----------- the same as above
4-4-4/7-7-7-5-5-5-x--x--x-----2x                  without changing
4-4-4/7-7-7-5-5-5-10-10-10----                    of this one
------------------------------


the song finishes with:
A5
---
---
---
-7-
-7-
-5-
Comments