Incubus - Wish You Were Here Chords & Tabs

 

Wish You Were Here Chords & Tabs

Incubus Chords & Tabs

Version: 13 Type: Tab 0 ratings
1 star 2 stars 3 stars 4 stars 5 stars
comments

Wish You Were Here Tab

   
This is 100% correct, im sure of it...i mean, just play it and you can see!
Please don't steal it, this took me forever.
#------------------------------#
#Band: Incubus                 #
#Song: Wish you were here      #
#CD: Morning View              #
#------------------------------#
#Tuning: Standard              #
#EQ: Bass/Mid/Treble: 4/6/4    #
#Effects: Delay, Flanger       #
#------------------------------#
#Tabbed By:                    #
#       Sam:                   #
#    blink182_fan45@yahoo.com  #
#IN YOUR FACE, Amit!           #
#------------------------------#
To get a delay-like effect, just crank the Reverb on your amp all the way up.


This is an awesome song, awesome intro and stuff like that.
Don't worry about the open notes untill you got the song itself down...
they're just fillers.
This is a very hard song to master, it may take a while to learn.
Uh...not for beginners.

#------------------------------#
#Key:                          #
#r = release                   #
#/ = slide                     #
#| = beginning or end of riff  #
#------------------------------#

Intro
slight distortion, let it ring
e|----------------------------------------------------------
b|----------------------------------------------------------
g|---4-4-4-0----4-4--4-4-4-4-0--------------0-2-2-2-2--2r-0-
d|---2-2-2-0-2--2-2--2-2-2-2-0--4--4-4-7-7--0-2-2-2-2--2r-0-
a|-0---------2------------------2--2-2-5-5--0-2-2-2-2--2r-0-
e|------------------------------2--2-2-5-5--0-0-0-0-0--0r---

e|---------------------------------------------------------|
b|---------------------------------------------------------|
g|-4--4-4-4-4-4--4--4-4-4-0------------------------9/11-11-|
d|-2--2-2-2-2-2--2--2-2-2-0--4--4-4-4/7-7--0-2-2-0-x----x--|
a|-0--0-0-0-0-2--2--2-2-2-0--4--4-4-4/7-7--0-2-2-0-7/9--9--|
e|---------------------------2--2-2-2/5-5--0-0-0-0---------|


Rhy. Fig. 2
distortion
e|--------------------------------------------------------
b|--------------------------------------------------------
g|-4--4-4-4--4--4-4-4-4--4-0--------------0--4-4-4-4--4-0-
d|-2--2-2-2--2--2-2-2-2--2-0--4--4-4-7-7--0--2-2-2-2--2-0-
a|-0--0-0-0--2--2-2-2-2--2-0--4--4-4/5-5--0--2-2-2-2--2-0-
e|-----------0--0-0-0-0--0-0--2--2-2/5-5--0--0-0-0-0--0-0-

e|--------------------------------------------------------------|
b|--------------------------------------------------------------|
g|-4--4-4-4-4--4--4-4-4-4-4--4-0----------------0-4-4-4-4-4-4-4-|
d|-2--2-2-2-2--2--2-2-2-2-2--2-0--4--4-4-4-7-7--0-2-2-2-2-2-2-2-|
a|-0--0-0-0-0--2--2-2-2-2-2--2-0--4--4-4-4-7-7--0-2-2-2-2-2-2-2-|
e|-------------0--0-0-0-0-0--0-0--2--2-2-2-5-5--0-0-0-0-0-0-0-0-|
[ Tab from: http://www.guitartabs.cc/tabs/i/incubus/wish_you_were_here_tab_ver_13.html ]
Riff A
slight distortion and delay
e|-----0---------------------12---------0-
b|---7---7---7--------0---------9-10------
g|-9-------9----------------------9---9---
d|-------------11---9-----11--------------
a|----------------------------------------
e|----------------------------------------

e|-----0-------------------------------------0-0-0-0-|
b|---7---7---7--------0---------9------------0-0-0-0-|
g|-9-------9------------------9---9---11--9----------|
d|-------------11---9------11-------11---------------|
a|---------------------------------------------------|
e|---------------------------------------------------|

Riff A2
played when he says "And in this moment I am happy, happy"
get louder as you go
e|-----0-------------------------------------0-0-0-0-|
b|---7---7---7--------0---------9------------0-0-0-0-|
g|-9-------9------------------9---9---11--9----------|
d|-------------11---9----9/11-------11---------------|
a|---------------------------------------------------|
e|---------------------------------------------------|

Interlude
distortion and flanger
e|----0-0-0-0---------0-0-0-0--------------0-0--0-0-0-0-
b|----0-0-0-0---------0-0-0-0--------------0-0--0-0-0-0-
g|-6-----------6--6-6-9-9-9-9--7--7-7-7-7--7-7--7-7-7-7-
d|-x-----------x--x-x-x-x-x-x--x--x-x-x-x---------x-x-x-
a|-4-----------4--4-4-7-7-7-7--5--5-5-5-5---------5-5-5-
e|------------------------------------------------------

e|----0-0-------------------------0-0-0----0-0-0-0-0-0-0-|
b|----0-0-------------------------0-0-0----0-0-0-0-0-0-0-|
g|-6-------6--9-9-9-9-9-9-9/7--7--------7--7-7-7-7-7-7-7-|
d|-x-------x--x-x-x-x-x-x-x/x--x--------x--x-x-x-x-x-x-x-|
a|-4-------4--7-7-7-7-7-7-7/5--5--------5--5-5-5-5-5-5-5-|
e|-------------------------------------------------------|

Bridge
linked from interlude
e|----0-0--0-0--------------------0-----------------------------
b|----0-0--0-0--------------------0-----------------------------
g|-6------------6--9-9-9-9-9-9-9--7--7-7-7-7--12-12-12-12-12-12-
d|-x------------x--x-x-x-x-x-x-x--x--x-x-x-x---x--x--x--x--x--x-
a|-4------------4--7-7-7-7-7-7-7--5--5-5-5-5--10-10-10-10-10-10-
e|--------------------------------------------------------------

e|----0-0-0---------------0-0-----0-0-------------------------------|
b|----0-0-0---------------0-0-----0-0-------------------------------|
g|-6---------9--9-9--9-9-------7-------12-12-12-12-12-12-12-12-12-9-|
d|-x---------x--x-x--x-x-------x--------x--x--x--x--x--x--x--x--x-x-|
a|-4---------7--7-7--7-7-------5-------10-10-10-10-10-10-10-10-10-7-|
e|------------------------------------------------------------------|

Ending
play 1st part of Rhy. Fig. 2 and then:
e|------------------------------------------------------------------|
b|------------------------------------------------------------------|
g|-4--4-4-4--4--4--4-4-4-4-4--4-0----------------0-4-4-4-4-4-4-4--4-|
d|-2--2-2-2--2--2--2-2-2-2-2--2-0--4--4-4-4-7-7--0-2-2-2-2-2-2-2--2-|
a|-0--0-0-0--0--2--2-2-2-2-2--2-0--4--4-4-4-7-7--0-2-2-2-2-2-2-2--0-|
e|--------------0--0-0-0-0-0--0-0--2--2-2-2-5-5--0-0-0-0-0-0-0-0----|

You'll have to figure out the order yourself. But it's really easy to figure out.
Any questions? email me at blink182_fan45@yahoo.com.
Comments