Incubus - Wish You Were Here Chords & Tabs

 

Wish You Were Here Chords & Tabs

Incubus Chords & Tabs

Version: 11 Type: Tab 0 ratings
1 star 2 stars 3 stars 4 stars 5 stars
comments

Wish You Were Here Tab

so far every one has got the chords right so here is the lead bit

[---2---2---2----0--0---h-----12---9---]
[-5---5---5---2--0--0--0--2-0----9-10--]
[----------------------------------9---]
[--------------------------------------]
[--------------------------------------]
[--------------------------------------]

[ Tab from: http://www.guitartabs.cc/tabs/i/incubus/wish_you_were_here_tab_ver_11.html ]
[---2---2---2----0--0-----4-----------0--0--0--0--0--]
[-5---5---5---2--0--0---h---5---7--7-----0--0--2--0--]
[----------------------4--6---6----------------------]
[----------------------------------------------------]
[----------------------------------------------------]
[----------------------------------------------------]
[----------------------------------------------------]
Comments