Incubus - Wish You Were Here Chords & Tabs

 

Wish You Were Here Chords & Tabs

Incubus Chords & Tabs

Version: 1 Type: Tab 2 ratings
1 star 2 stars 3 stars 4 stars 5 stars
comments

Wish You Were Here Tab

   
Wish you were here 
By Incubus

Alright i have seen people try to tab this all over the internet and i have yet
to see it done right.  You people have to relieze that not all songs are 
power chords

Standard Tuneing
(Eadgbe)

These are the chords used in the intro and chorus
  you figure the pattern out yourself its not hard

       A   E   F#  D   E       A   E   F#  A   E

e|-----0---0---2---0---0---|---0---0---2---5---0---|
b|-----0---0---3---3---0---|---0---0---2---5---0---|
g|-----2---1---4---2---1---|---2---1---2---5---1---|  X2
d|-----2---2---4---0---2---|---2---2---4---7---2---|
a|-----0---2---2---X---2---|---0---2---4---7---2---|
E|-----0---0---X---X---0---|---0---0---2---5---0---|

This is first played clean then kick in overdrive and 
hardcore reverb and play in again

Then this crazy shit here
[ Tab from: http://www.guitartabs.cc/tabs/i/incubus/wish_you_were_here_tab.html ]
e|-----0----0----0-------------12--------| 
b|--------------------------------9-10---|
g|-------11---11------------9------------|
d|-----------------11--11p9--------------|
a|---------------------------------------|
E|---------------------------------------|

e|-----0----0----0-----------------------| 
b|----------------------------9----------|
g|-------11---11------------9---9-10-----|
d|-----------------11--11p9--------------|
a|---------------------------------------|
E|---------------------------------------|

Play this during the verses with some delay but don't 
overkill the delay

The interlude is really easy
Its these power chords with or without distortion i don't
really care

e|-------------------| 
b|-------------------|
g|-------2-------4---|
d|---4---2---3---4---|
a|---4---0---3---2---|
E|---2-------5-------|

Thats it have fun

You prolly can't tell but this is the first tab i ever did
you'll be seeing alot more quality incubus tabs from me in 
the future
(Sorry this isn't what i showed you joe i was wrong then) 
Comments